ISO-10303-21;
HEADER;
FILE_DESCRIPTION (( 'STEP AP203' ),
    '1' );
FILE_NAME ('552130.step',
    '2024-02-12T14:28:42',
    ( '' ),
    ( '' ),
    'SwSTEP 2.0',
    'SolidWorks 2019',
    '' );
FILE_SCHEMA (( 'CONFIG_CONTROL_DESIGN' ));
ENDSEC;

DATA;
#1 = DATE_AND_TIME ( #145, #305 ) ;
#2 = ORIENTED_EDGE ( 'NONE', *, *, #4, .T. ) ;
#3 = SECURITY_CLASSIFICATION_LEVEL ( 'unclassified' ) ;
#4 = EDGE_CURVE ( 'NONE', #292, #149, #280, .T. ) ;
#5 = CIRCLE ( 'NONE', #19, 2.999999999999999112 ) ;
#6 = AXIS2_PLACEMENT_3D ( 'NONE', #164, #311, #88 ) ;
#7 = PERSON_AND_ORGANIZATION ( #99, #184 ) ;
#8 = ORIENTED_EDGE ( 'NONE', *, *, #191, .T. ) ;
#9 = CARTESIAN_POINT ( 'NONE',  ( 2.999999999999999112, 0.000000000000000000, 8.000000000000000000 ) ) ;
#10 = CIRCLE ( 'NONE', #267, 3.000000000000000000 ) ;
#11 = DIRECTION ( 'NONE',  ( -0.000000000000000000, -0.000000000000000000, -1.000000000000000000 ) ) ;
#12 = CC_DESIGN_APPROVAL ( #42, ( #127 ) ) ;
#13 = DIRECTION ( 'NONE',  ( -1.000000000000000000, 0.000000000000000000, 0.000000000000000000 ) ) ;
#14 = CARTESIAN_POINT ( 'NONE',  ( -3.000000000000000000, 0.000000000000000000, 8.000000000000000000 ) ) ;
#15 = EDGE_CURVE ( 'NONE', #51, #52, #10, .T. ) ;
#16 =( NAMED_UNIT ( * ) SI_UNIT ( $, .STERADIAN. ) SOLID_ANGLE_UNIT ( ) );
#17 = DIRECTION ( 'NONE',  ( 0.000000000000000000, 0.000000000000000000, -1.000000000000000000 ) ) ;
#18 = PLANE ( 'NONE',  #147 ) ;
#19 = AXIS2_PLACEMENT_3D ( 'NONE', #230, #253, #252 ) ;
#20 = DIRECTION ( 'NONE',  ( -0.7071067811865467956, 0.000000000000000000, -0.7071067811865483499 ) ) ;
#21 = CC_DESIGN_PERSON_AND_ORGANIZATION_ASSIGNMENT ( #295, #148, ( #232 ) ) ;
#22 = PERSON_AND_ORGANIZATION_ROLE ( 'creator' ) ;
#23 = ORIENTED_EDGE ( 'NONE', *, *, #153, .T. ) ;
#24 = CALENDAR_DATE ( 2024, 12, 2 ) ;
#25 = ORIENTED_EDGE ( 'NONE', *, *, #40, .F. ) ;
#26 = COORDINATED_UNIVERSAL_TIME_OFFSET ( 1, 0, .AHEAD. ) ;
#27 = COORDINATED_UNIVERSAL_TIME_OFFSET ( 1, 0, .AHEAD. ) ;
#28 = EDGE_LOOP ( 'NONE', ( #303, #98 ) ) ;
#29 = APPLICATION_CONTEXT ( 'configuration controlled 3d designs of mechanical parts and assemblies' ) ;
#30 = ORIENTED_EDGE ( 'NONE', *, *, #44, .F. ) ;
#31 = CARTESIAN_POINT ( 'NONE',  ( -3.000000000000000444, 3.673940397442060361E-16, 0.000000000000000000 ) ) ;
#32 = DIRECTION ( 'NONE',  ( 1.000000000000000000, 0.000000000000000000, 0.000000000000000000 ) ) ;
#33 = DIRECTION ( 'NONE',  ( -0.000000000000000000, -0.000000000000000000, -1.000000000000000000 ) ) ;
#34 = ADVANCED_FACE ( 'NONE', ( #205 ), #231, .T. ) ;
#35 = ORIENTED_EDGE ( 'NONE', *, *, #105, .F. ) ;
#36 = FACE_OUTER_BOUND ( 'NONE', #119, .T. ) ;
#37 = CYLINDRICAL_SURFACE ( 'NONE', #268, 2.999999999999997780 ) ;
#38 = AXIS2_PLACEMENT_3D ( 'NONE', #82, #129, #299 ) ;
#39 = DIRECTION ( 'NONE',  ( 1.000000000000000000, 0.000000000000000000, -0.000000000000000000 ) ) ;
#40 = EDGE_CURVE ( 'NONE', #52, #51, #66, .T. ) ;
#41 = DIRECTION ( 'NONE',  ( -0.000000000000000000, -0.000000000000000000, 1.000000000000000000 ) ) ;
#42 = APPROVAL ( #176, 'NON SPECIFICATO' ) ;
#43 = CARTESIAN_POINT ( 'NONE',  ( 0.000000000000000000, -4.163799117101000559E-15, 38.00000000000000711 ) ) ;
#44 = EDGE_CURVE ( 'NONE', #249, #276, #218, .T. ) ;
#45 = PERSON_AND_ORGANIZATION ( #99, #184 ) ;
#46 = PERSON_AND_ORGANIZATION ( #99, #184 ) ;
#47 = ORIENTED_EDGE ( 'NONE', *, *, #251, .T. ) ;
#48 = AXIS2_PLACEMENT_3D ( 'NONE', #60, #64, #233 ) ;
#49 = AXIS2_PLACEMENT_3D ( 'NONE', #310, #288, #192 ) ;
#50 = CALENDAR_DATE ( 2024, 12, 2 ) ;
#51 = VERTEX_POINT ( 'NONE', #14 ) ;
#52 = VERTEX_POINT ( 'NONE', #301 ) ;
#53 = PRODUCT_RELATED_PRODUCT_CATEGORY ( 'detail', '', ( #161 ) ) ;
#54 = APPLICATION_PROTOCOL_DEFINITION ( 'international standard', 'config_control_design', 1994, #150 ) ;
#55 = CC_DESIGN_PERSON_AND_ORGANIZATION_ASSIGNMENT ( #45, #199, ( #127 ) ) ;
#56 = VERTEX_POINT ( 'NONE', #31 ) ;
#57 = AXIS2_PLACEMENT_3D ( 'NONE', #307, #17, #113 ) ;
#58 = DIRECTION ( 'NONE',  ( -0.000000000000000000, -0.000000000000000000, 1.000000000000000000 ) ) ;
#59 = CARTESIAN_POINT ( 'NONE',  ( 0.000000000000000000, 0.000000000000000000, 8.000000000000000000 ) ) ;
#60 = CARTESIAN_POINT ( 'NONE',  ( 0.000000000000000000, 0.000000000000000000, 38.00000000000000711 ) ) ;
#61 = AXIS2_PLACEMENT_3D ( 'NONE', #106, #135, #152 ) ;
#62 = FACE_OUTER_BOUND ( 'NONE', #225, .T. ) ;
#63 = UNCERTAINTY_MEASURE_WITH_UNIT (LENGTH_MEASURE( 1.000000000000000082E-05 ), #166, 'distance_accuracy_value', 'NONE');
#64 = DIRECTION ( 'NONE',  ( 0.000000000000000000, 0.000000000000000000, 1.000000000000000000 ) ) ;
#65 = FACE_OUTER_BOUND ( 'NONE', #28, .T. ) ;
#66 = CIRCLE ( 'NONE', #179, 3.000000000000000000 ) ;
#67 = CIRCLE ( 'NONE', #244, 2.399999999999982148 ) ;
#68 = DIRECTION ( 'NONE',  ( -0.000000000000000000, -0.000000000000000000, -1.000000000000000000 ) ) ;
#69 = DIRECTION ( 'NONE',  ( 0.7071067811865467956, 8.659560562354925463E-17, -0.7071067811865483499 ) ) ;
#70 = ADVANCED_BREP_SHAPE_REPRESENTATION ( '552130', ( #168, #274, #174 ), #162 ) ;
#71 = EDGE_CURVE ( 'NONE', #292, #56, #140, .T. ) ;
#72 = DIRECTION ( 'NONE',  ( 1.000000000000000000, 0.000000000000000000, 0.000000000000000000 ) ) ;
#73 = APPROVAL_STATUS ( 'not_yet_approved' ) ;
#74 = PERSON_AND_ORGANIZATION ( #99, #184 ) ;
#75 = ORIENTED_EDGE ( 'NONE', *, *, #153, .F. ) ;
#76 = APPROVAL_ROLE ( '' ) ;
#77 = EDGE_LOOP ( 'NONE', ( #200, #47, #271, #222 ) ) ;
#78 = AXIS2_PLACEMENT_3D ( 'NONE', #180, #257, #182 ) ;
#79 = EDGE_CURVE ( 'NONE', #264, #108, #172, .T. ) ;
#80 = DATE_TIME_ROLE ( 'classification_date' ) ;
#81 = DATE_AND_TIME ( #226, #308 ) ;
#82 = CARTESIAN_POINT ( 'NONE',  ( 0.000000000000000000, 0.000000000000000000, 0.000000000000000000 ) ) ;
#83 = DIRECTION ( 'NONE',  ( 0.000000000000000000, 0.000000000000000000, 1.000000000000000000 ) ) ;
#84 = DIRECTION ( 'NONE',  ( -0.000000000000000000, -0.000000000000000000, -1.000000000000000000 ) ) ;
#85 = DIRECTION ( 'NONE',  ( 1.000000000000000000, 0.000000000000000000, 0.000000000000000000 ) ) ;
#86 = CC_DESIGN_APPROVAL ( #216, ( #242 ) ) ;
#87 = DIRECTION ( 'NONE',  ( 1.000000000000000000, 0.000000000000000000, 0.000000000000000000 ) ) ;
#88 = DIRECTION ( 'NONE',  ( 1.000000000000000000, 0.000000000000000000, 0.000000000000000000 ) ) ;
#89 = CIRCLE ( 'NONE', #266, 2.999999999999999112 ) ;
#90 = DIRECTION ( 'NONE',  ( -1.000000000000000000, 0.000000000000000000, 0.000000000000000000 ) ) ;
#91 = PRODUCT_DEFINITION_SHAPE ( 'NONE', 'NONE',  #242 ) ;
#92 = CARTESIAN_POINT ( 'NONE',  ( 2.399999999999982148, 3.306546357697841900E-16, 38.00000000000000711 ) ) ;
#93 = EDGE_CURVE ( 'NONE', #273, #149, #89, .T. ) ;
#94 = DIRECTION ( 'NONE',  ( -0.000000000000000000, -0.000000000000000000, -1.000000000000000000 ) ) ;
#95 = PERSON_AND_ORGANIZATION ( #99, #184 ) ;
#96 = AXIS2_PLACEMENT_3D ( 'NONE', #256, #134, #234 ) ;
#97 = CARTESIAN_POINT ( 'NONE',  ( 0.000000000000000000, 0.000000000000000000, 0.000000000000000000 ) ) ;
#98 = ORIENTED_EDGE ( 'NONE', *, *, #44, .T. ) ;
#99 = PERSON ( 'NON SPECIFICATO', 'NON SPECIFICATO', 'NON SPECIFICATO', ('NON SPECIFICATO'), ('NON SPECIFICATO'), ('NON SPECIFICATO') ) ;
#100 = ORIENTED_EDGE ( 'NONE', *, *, #208, .F. ) ;
#101 = DIRECTION ( 'NONE',  ( 1.000000000000000000, 0.000000000000000000, 0.000000000000000000 ) ) ;
#102 = CC_DESIGN_DATE_AND_TIME_ASSIGNMENT ( #81, #198, ( #242 ) ) ;
#103 = APPROVAL_ROLE ( '' ) ;
#104 = ORIENTED_EDGE ( 'NONE', *, *, #281, .T. ) ;
#105 = EDGE_CURVE ( 'NONE', #56, #292, #213, .T. ) ;
#106 = CARTESIAN_POINT ( 'NONE',  ( 0.000000000000000000, 0.000000000000000000, 37.39999999999999147 ) ) ;
#107 = CARTESIAN_POINT ( 'NONE',  ( 0.000000000000000000, 0.000000000000000000, 38.00000000000000711 ) ) ;
#108 = VERTEX_POINT ( 'NONE', #178 ) ;
#109 = CARTESIAN_POINT ( 'NONE',  ( 0.000000000000000000, 0.000000000000000000, 0.000000000000000000 ) ) ;
#110 = DIRECTION ( 'NONE',  ( -0.000000000000000000, -0.000000000000000000, 1.000000000000000000 ) ) ;
#111 = CC_DESIGN_APPROVAL ( #143, ( #232 ) ) ;
#112 = ADVANCED_FACE ( 'NONE', ( #36 ), #183, .T. ) ;
#113 = DIRECTION ( 'NONE',  ( -1.000000000000000000, 0.000000000000000000, -0.000000000000000000 ) ) ;
#114 = CYLINDRICAL_SURFACE ( 'NONE', #6, 2.999999999999999556 ) ;
#115 = CARTESIAN_POINT ( 'NONE',  ( -2.399999999999982148, 0.000000000000000000, 38.00000000000000711 ) ) ;
#116 = LINE ( 'NONE', #190, #275 ) ;
#117 = COORDINATED_UNIVERSAL_TIME_OFFSET ( 1, 0, .AHEAD. ) ;
#118 = APPLICATION_PROTOCOL_DEFINITION ( 'international standard', 'config_control_design', 1994, #29 ) ;
#119 = EDGE_LOOP ( 'NONE', ( #100, #245, #8, #75 ) ) ;
#120 = CLOSED_SHELL ( 'NONE', ( #297, #185, #224, #194 ) ) ;
#121 = EDGE_CURVE ( 'NONE', #149, #273, #5, .T. ) ;
#122 = EDGE_LOOP ( 'NONE', ( #203, #293, #2, #126 ) ) ;
#123 = SHAPE_DEFINITION_REPRESENTATION ( #91, #70 ) ;
#124 = ORIENTED_EDGE ( 'NONE', *, *, #251, .F. ) ;
#125 = DIRECTION ( 'NONE',  ( 0.000000000000000000, 0.000000000000000000, 1.000000000000000000 ) ) ;
#126 = ORIENTED_EDGE ( 'NONE', *, *, #93, .F. ) ;
#127 = PRODUCT_DEFINITION_FORMATION_WITH_SPECIFIED_SOURCE ( 'TUTTO', '', #161, .NOT_KNOWN. ) ;
#128 = ORIENTED_EDGE ( 'NONE', *, *, #121, .F. ) ;
#129 = DIRECTION ( 'NONE',  ( -0.000000000000000000, -0.000000000000000000, -1.000000000000000000 ) ) ;
#130 = ORIENTED_EDGE ( 'NONE', *, *, #15, .T. ) ;
#131 = APPROVAL_PERSON_ORGANIZATION ( #46, #42, #103 ) ;
#132 = ADVANCED_FACE ( 'NONE', ( #300 ), #285, .T. ) ;
#133 = DIRECTION ( 'NONE',  ( -1.000000000000000000, 0.000000000000000000, 0.000000000000000000 ) ) ;
#134 = DIRECTION ( 'NONE',  ( 0.000000000000000000, -0.000000000000000000, 1.000000000000000000 ) ) ;
#135 = DIRECTION ( 'NONE',  ( -0.000000000000000000, -0.000000000000000000, -1.000000000000000000 ) ) ;
#136 = CLOSED_SHELL ( 'NONE', ( #132, #34, #302, #265, #240, #112 ) ) ;
#137 = LINE ( 'NONE', #236, #219 ) ;
#138 = LINE ( 'NONE', #261, #294 ) ;
#139 = PLANE ( 'NONE',  #57 ) ;
#140 = CIRCLE ( 'NONE', #258, 3.000000000000000000 ) ;
#141 = VECTOR ( 'NONE', #69, 999.9999999999998863 ) ;
#142 = CARTESIAN_POINT ( 'NONE',  ( 0.000000000000000000, 0.000000000000000000, 8.000000000000000000 ) ) ;
#143 = APPROVAL ( #73, 'NON SPECIFICATO' ) ;
#144 = APPROVAL_ROLE ( '' ) ;
#145 = CALENDAR_DATE ( 2024, 12, 2 ) ;
#146 = ORIENTED_EDGE ( 'NONE', *, *, #93, .T. ) ;
#147 = AXIS2_PLACEMENT_3D ( 'NONE', #43, #259, #39 ) ;
#148 = PERSON_AND_ORGANIZATION_ROLE ( 'classification_officer' ) ;
#149 = VERTEX_POINT ( 'NONE', #9 ) ;
#150 = APPLICATION_CONTEXT ( 'configuration controlled 3d designs of mechanical parts and assemblies' ) ;
#151 = CARTESIAN_POINT ( 'NONE',  ( 0.000000000000000000, 0.000000000000000000, 8.000000000000000000 ) ) ;
#152 = DIRECTION ( 'NONE',  ( -1.000000000000000000, 0.000000000000000000, 0.000000000000000000 ) ) ;
#153 = EDGE_CURVE ( 'NONE', #108, #264, #255, .T. ) ;
#154 = DIRECTION ( 'NONE',  ( -0.000000000000000000, -0.000000000000000000, -1.000000000000000000 ) ) ;
#155 = AXIS2_PLACEMENT_3D ( 'NONE', #142, #41, #72 ) ;
#156 = CC_DESIGN_PERSON_AND_ORGANIZATION_ASSIGNMENT ( #7, #22, ( #242 ) ) ;
#157 = PLANE ( 'NONE',  #96 ) ;
#158 = EDGE_CURVE ( 'NONE', #276, #249, #67, .T. ) ;
#159 = DIRECTION ( 'NONE',  ( -0.000000000000000000, -0.000000000000000000, 1.000000000000000000 ) ) ;
#160 = VECTOR ( 'NONE', #110, 1000.000000000000000 ) ;
#161 = PRODUCT ( '552130', '552130', '', ( #291 ) ) ;
#162 =( GEOMETRIC_REPRESENTATION_CONTEXT ( 3 ) GLOBAL_UNCERTAINTY_ASSIGNED_CONTEXT ( ( #63 ) ) GLOBAL_UNIT_ASSIGNED_CONTEXT ( ( #166, #287, #16 ) ) REPRESENTATION_CONTEXT ( 'NONE', 'WORKASPACE' ) );
#163 = DIRECTION ( 'NONE',  ( -0.000000000000000000, -0.000000000000000000, 1.000000000000000000 ) ) ;
#164 = CARTESIAN_POINT ( 'NONE',  ( 0.000000000000000000, 0.000000000000000000, 8.000000000000000000 ) ) ;
#165 = LINE ( 'NONE', #211, #141 ) ;
#166 =( LENGTH_UNIT ( ) NAMED_UNIT ( * ) SI_UNIT ( .MILLI., .METRE. ) );
#167 = APPROVAL_PERSON_ORGANIZATION ( #95, #143, #144 ) ;
#168 = MANIFOLD_SOLID_BREP ( 'Tagliente', #120 ) ;
#169 = DATE_AND_TIME ( #170, #189 ) ;
#170 = CALENDAR_DATE ( 2024, 12, 2 ) ;
#171 = APPROVAL_DATE_TIME ( #169, #216 ) ;
#172 = CIRCLE ( 'NONE', #243, 2.999999999999997780 ) ;
#173 = ORIENTED_EDGE ( 'NONE', *, *, #79, .F. ) ;
#174 = AXIS2_PLACEMENT_3D ( 'NONE', #97, #125, #101 ) ;
#175 = ORIENTED_EDGE ( 'NONE', *, *, #71, .T. ) ;
#176 = APPROVAL_STATUS ( 'not_yet_approved' ) ;
#177 = EDGE_LOOP ( 'NONE', ( #296, #146 ) ) ;
#178 = CARTESIAN_POINT ( 'NONE',  ( 2.999999999999997780, 3.673940397442057403E-16, 37.39999999999999147 ) ) ;
#179 = AXIS2_PLACEMENT_3D ( 'NONE', #151, #11, #133 ) ;
#180 = CARTESIAN_POINT ( 'NONE',  ( 0.000000000000000000, 0.000000000000000000, 0.000000000000000000 ) ) ;
#181 = CARTESIAN_POINT ( 'NONE',  ( 0.000000000000000000, 0.000000000000000000, 37.39999999999999147 ) ) ;
#182 = DIRECTION ( 'NONE',  ( 1.000000000000000000, 0.000000000000000000, 0.000000000000000000 ) ) ;
#183 = CONICAL_SURFACE ( 'NONE', #61, 2.999999999999997780, 0.7853981633974472798 ) ;
#184 = ORGANIZATION ( 'NON SPECIFICATO', 'NON SPECIFICATO', '' ) ;
#185 = ADVANCED_FACE ( 'NONE', ( #62 ), #157, .F. ) ;
#186 = ORIENTED_EDGE ( 'NONE', *, *, #208, .T. ) ;
#187 = FACE_OUTER_BOUND ( 'NONE', #177, .T. ) ;
#188 = CARTESIAN_POINT ( 'NONE',  ( 0.000000000000000000, 0.000000000000000000, 0.000000000000000000 ) ) ;
#189 = LOCAL_TIME ( 15, 28, 42.00000000000000000, #298 ) ;
#190 = CARTESIAN_POINT ( 'NONE',  ( -2.999999999999997780, 0.000000000000000000, 37.39999999999999147 ) ) ;
#191 = EDGE_CURVE ( 'NONE', #276, #264, #116, .T. ) ;
#192 = DIRECTION ( 'NONE',  ( -1.000000000000000000, 0.000000000000000000, 0.000000000000000000 ) ) ;
#193 = FACE_OUTER_BOUND ( 'NONE', #229, .T. ) ;
#194 = ADVANCED_FACE ( 'NONE', ( #187 ), #139, .F. ) ;
#195 = APPROVAL_DATE_TIME ( #241, #143 ) ;
#196 = ORIENTED_EDGE ( 'NONE', *, *, #191, .F. ) ;
#197 = EDGE_LOOP ( 'NONE', ( #30, #186, #173, #196 ) ) ;
#198 = DATE_TIME_ROLE ( 'creation_date' ) ;
#199 = PERSON_AND_ORGANIZATION_ROLE ( 'creator' ) ;
#200 = ORIENTED_EDGE ( 'NONE', *, *, #79, .T. ) ;
#201 = AXIS2_PLACEMENT_3D ( 'NONE', #254, #33, #278 ) ;
#202 = PERSON_AND_ORGANIZATION ( #99, #184 ) ;
#203 = ORIENTED_EDGE ( 'NONE', *, *, #246, .F. ) ;
#204 = DIRECTION ( 'NONE',  ( -1.000000000000000000, 0.000000000000000000, 0.000000000000000000 ) ) ;
#205 = FACE_OUTER_BOUND ( 'NONE', #77, .T. ) ;
#206 = DIRECTION ( 'NONE',  ( 1.000000000000000000, 0.000000000000000000, 0.000000000000000000 ) ) ;
#207 = CARTESIAN_POINT ( 'NONE',  ( 0.000000000000000000, 0.000000000000000000, 8.000000000000000000 ) ) ;
#208 = EDGE_CURVE ( 'NONE', #249, #108, #165, .T. ) ;
#209 = ORIENTED_EDGE ( 'NONE', *, *, #4, .F. ) ;
#210 = FACE_OUTER_BOUND ( 'NONE', #122, .T. ) ;
#211 = CARTESIAN_POINT ( 'NONE',  ( 2.999999999999997780, 3.673940397442057403E-16, 37.39999999999999147 ) ) ;
#212 = CYLINDRICAL_SURFACE ( 'NONE', #155, 2.999999999999999556 ) ;
#213 = CIRCLE ( 'NONE', #78, 3.000000000000000000 ) ;
#214 = CC_DESIGN_SECURITY_CLASSIFICATION ( #232, ( #127 ) ) ;
#215 = PLANE ( 'NONE',  #49 ) ;
#216 = APPROVAL ( #221, 'NON SPECIFICATO' ) ;
#217 = FACE_OUTER_BOUND ( 'NONE', #220, .T. ) ;
#218 = CIRCLE ( 'NONE', #48, 2.399999999999982148 ) ;
#219 = VECTOR ( 'NONE', #163, 1000.000000000000000 ) ;
#220 = EDGE_LOOP ( 'NONE', ( #124, #23, #104, #25 ) ) ;
#221 = APPROVAL_STATUS ( 'not_yet_approved' ) ;
#222 = ORIENTED_EDGE ( 'NONE', *, *, #281, .F. ) ;
#223 = APPROVAL_DATE_TIME ( #1, #42 ) ;
#224 = ADVANCED_FACE ( 'NONE', ( #210 ), #114, .T. ) ;
#225 = EDGE_LOOP ( 'NONE', ( #290, #35 ) ) ;
#226 = CALENDAR_DATE ( 2024, 12, 2 ) ;
#227 = EDGE_LOOP ( 'NONE', ( #175, #262, #128, #209 ) ) ;
#228 = APPROVAL_PERSON_ORGANIZATION ( #74, #216, #76 ) ;
#229 = EDGE_LOOP ( 'NONE', ( #130, #269 ) ) ;
#230 = CARTESIAN_POINT ( 'NONE',  ( 0.000000000000000000, 0.000000000000000000, 8.000000000000000000 ) ) ;
#231 = CYLINDRICAL_SURFACE ( 'NONE', #38, 2.999999999999997780 ) ;
#232 = SECURITY_CLASSIFICATION ( '', '', #3 ) ;
#233 = DIRECTION ( 'NONE',  ( 1.000000000000000000, 0.000000000000000000, 0.000000000000000000 ) ) ;
#234 = DIRECTION ( 'NONE',  ( 1.000000000000000000, 0.000000000000000000, 0.000000000000000000 ) ) ;
#235 = CARTESIAN_POINT ( 'NONE',  ( 2.999999999999999556, 0.000000000000000000, 8.000000000000000000 ) ) ;
#236 = CARTESIAN_POINT ( 'NONE',  ( -2.999999999999999556, 3.673940397442059375E-16, 8.000000000000000000 ) ) ;
#237 = CARTESIAN_POINT ( 'NONE',  ( 3.000000000000000000, 0.000000000000000000, 0.000000000000000000 ) ) ;
#238 = CARTESIAN_POINT ( 'NONE',  ( -2.999999999999999112, 3.673940397442059375E-16, 8.000000000000000000 ) ) ;
#239 = PERSON_AND_ORGANIZATION_ROLE ( 'design_owner' ) ;
#240 = ADVANCED_FACE ( 'NONE', ( #217 ), #37, .T. ) ;
#241 = DATE_AND_TIME ( #24, #250 ) ;
#242 = PRODUCT_DEFINITION ( 'NON CONOSCIUTO', '', #127, #282 ) ;
#243 = AXIS2_PLACEMENT_3D ( 'NONE', #304, #84, #87 ) ;
#244 = AXIS2_PLACEMENT_3D ( 'NONE', #107, #83, #32 ) ;
#245 = ORIENTED_EDGE ( 'NONE', *, *, #158, .F. ) ;
#246 = EDGE_CURVE ( 'NONE', #56, #273, #137, .T. ) ;
#247 = DATE_AND_TIME ( #50, #309 ) ;
#248 = CC_DESIGN_PERSON_AND_ORGANIZATION_ASSIGNMENT ( #202, #272, ( #127 ) ) ;
#249 = VERTEX_POINT ( 'NONE', #92 ) ;
#250 = LOCAL_TIME ( 15, 28, 42.00000000000000000, #26 ) ;
#251 = EDGE_CURVE ( 'NONE', #108, #52, #260, .T. ) ;
#252 = DIRECTION ( 'NONE',  ( 1.000000000000000000, 0.000000000000000000, 0.000000000000000000 ) ) ;
#253 = DIRECTION ( 'NONE',  ( -0.000000000000000000, -0.000000000000000000, 1.000000000000000000 ) ) ;
#254 = CARTESIAN_POINT ( 'NONE',  ( 0.000000000000000000, 0.000000000000000000, 37.39999999999999147 ) ) ;
#255 = CIRCLE ( 'NONE', #201, 2.999999999999997780 ) ;
#256 = CARTESIAN_POINT ( 'NONE',  ( 0.000000000000000000, 0.000000000000000000, 0.000000000000000000 ) ) ;
#257 = DIRECTION ( 'NONE',  ( -0.000000000000000000, -0.000000000000000000, 1.000000000000000000 ) ) ;
#258 = AXIS2_PLACEMENT_3D ( 'NONE', #109, #58, #206 ) ;
#259 = DIRECTION ( 'NONE',  ( 0.000000000000000000, 0.000000000000000000, 1.000000000000000000 ) ) ;
#260 = LINE ( 'NONE', #284, #289 ) ;
#261 = CARTESIAN_POINT ( 'NONE',  ( -2.999999999999997780, 0.000000000000000000, 0.000000000000000000 ) ) ;
#262 = ORIENTED_EDGE ( 'NONE', *, *, #246, .T. ) ;
#263 = COORDINATED_UNIVERSAL_TIME_OFFSET ( 1, 0, .AHEAD. ) ;
#264 = VERTEX_POINT ( 'NONE', #286 ) ;
#265 = ADVANCED_FACE ( 'NONE', ( #65 ), #18, .T. ) ;
#266 = AXIS2_PLACEMENT_3D ( 'NONE', #207, #159, #85 ) ;
#267 = AXIS2_PLACEMENT_3D ( 'NONE', #59, #277, #13 ) ;
#268 = AXIS2_PLACEMENT_3D ( 'NONE', #188, #94, #90 ) ;
#269 = ORIENTED_EDGE ( 'NONE', *, *, #40, .T. ) ;
#270 = CC_DESIGN_PERSON_AND_ORGANIZATION_ASSIGNMENT ( #313, #239, ( #161 ) ) ;
#271 = ORIENTED_EDGE ( 'NONE', *, *, #15, .F. ) ;
#272 = PERSON_AND_ORGANIZATION_ROLE ( 'design_supplier' ) ;
#273 = VERTEX_POINT ( 'NONE', #238 ) ;
#274 = MANIFOLD_SOLID_BREP ( 'SmussoGambo', #136 ) ;
#275 = VECTOR ( 'NONE', #20, 999.9999999999998863 ) ;
#276 = VERTEX_POINT ( 'NONE', #115 ) ;
#277 = DIRECTION ( 'NONE',  ( -0.000000000000000000, -0.000000000000000000, -1.000000000000000000 ) ) ;
#278 = DIRECTION ( 'NONE',  ( 1.000000000000000000, 0.000000000000000000, 0.000000000000000000 ) ) ;
#279 = AXIS2_PLACEMENT_3D ( 'NONE', #181, #154, #204 ) ;
#280 = LINE ( 'NONE', #235, #160 ) ;
#281 = EDGE_CURVE ( 'NONE', #264, #51, #138, .T. ) ;
#282 = DESIGN_CONTEXT ( 'detailed design', #29, 'design' ) ;
#283 = FACE_OUTER_BOUND ( 'NONE', #227, .T. ) ;
#284 = CARTESIAN_POINT ( 'NONE',  ( 2.999999999999997780, 3.673940397442057403E-16, 0.000000000000000000 ) ) ;
#285 = CONICAL_SURFACE ( 'NONE', #279, 2.999999999999997780, 0.7853981633974472798 ) ;
#286 = CARTESIAN_POINT ( 'NONE',  ( -2.999999999999997780, 0.000000000000000000, 37.39999999999999147 ) ) ;
#287 =( NAMED_UNIT ( * ) PLANE_ANGLE_UNIT ( ) SI_UNIT ( $, .RADIAN. ) );
#288 = DIRECTION ( 'NONE',  ( -0.000000000000000000, 0.000000000000000000, -1.000000000000000000 ) ) ;
#289 = VECTOR ( 'NONE', #306, 1000.000000000000000 ) ;
#290 = ORIENTED_EDGE ( 'NONE', *, *, #71, .F. ) ;
#291 = MECHANICAL_CONTEXT ( 'NONE', #150, 'mechanical' ) ;
#292 = VERTEX_POINT ( 'NONE', #237 ) ;
#293 = ORIENTED_EDGE ( 'NONE', *, *, #105, .T. ) ;
#294 = VECTOR ( 'NONE', #68, 1000.000000000000000 ) ;
#295 = PERSON_AND_ORGANIZATION ( #99, #184 ) ;
#296 = ORIENTED_EDGE ( 'NONE', *, *, #121, .T. ) ;
#297 = ADVANCED_FACE ( 'NONE', ( #283 ), #212, .T. ) ;
#298 = COORDINATED_UNIVERSAL_TIME_OFFSET ( 1, 0, .AHEAD. ) ;
#299 = DIRECTION ( 'NONE',  ( -1.000000000000000000, 0.000000000000000000, 0.000000000000000000 ) ) ;
#300 = FACE_OUTER_BOUND ( 'NONE', #197, .T. ) ;
#301 = CARTESIAN_POINT ( 'NONE',  ( 3.000000000000000000, 3.673940397442059868E-16, 8.000000000000000000 ) ) ;
#302 = ADVANCED_FACE ( 'NONE', ( #193 ), #215, .T. ) ;
#303 = ORIENTED_EDGE ( 'NONE', *, *, #158, .T. ) ;
#304 = CARTESIAN_POINT ( 'NONE',  ( 0.000000000000000000, 0.000000000000000000, 37.39999999999999147 ) ) ;
#305 = LOCAL_TIME ( 15, 28, 42.00000000000000000, #27 ) ;
#306 = DIRECTION ( 'NONE',  ( -0.000000000000000000, -0.000000000000000000, -1.000000000000000000 ) ) ;
#307 = CARTESIAN_POINT ( 'NONE',  ( 0.000000000000000000, 2.999999999999999112, 8.000000000000000000 ) ) ;
#308 = LOCAL_TIME ( 15, 28, 42.00000000000000000, #263 ) ;
#309 = LOCAL_TIME ( 15, 28, 42.00000000000000000, #117 ) ;
#310 = CARTESIAN_POINT ( 'NONE',  ( 0.000000000000000000, 3.000000000000000000, 8.000000000000000000 ) ) ;
#311 = DIRECTION ( 'NONE',  ( -0.000000000000000000, -0.000000000000000000, 1.000000000000000000 ) ) ;
#312 = CC_DESIGN_DATE_AND_TIME_ASSIGNMENT ( #247, #80, ( #232 ) ) ;
#313 = PERSON_AND_ORGANIZATION ( #99, #184 ) ;
ENDSEC;
END-ISO-10303-21;
