ISO-10303-21;
HEADER;
FILE_DESCRIPTION (( 'STEP AP203' ),
    '1' );
FILE_NAME ('552131.step',
    '2024-02-12T14:28:42',
    ( '' ),
    ( '' ),
    'SwSTEP 2.0',
    'SolidWorks 2019',
    '' );
FILE_SCHEMA (( 'CONFIG_CONTROL_DESIGN' ));
ENDSEC;

DATA;
#1 = EDGE_LOOP ( 'NONE', ( #282, #119, #291, #263 ) ) ;
#2 = VERTEX_POINT ( 'NONE', #214 ) ;
#3 = DIRECTION ( 'NONE',  ( -0.000000000000000000, -0.000000000000000000, -1.000000000000000000 ) ) ;
#4 = CALENDAR_DATE ( 2024, 12, 2 ) ;
#5 = EDGE_CURVE ( 'NONE', #7, #148, #165, .T. ) ;
#6 = CLOSED_SHELL ( 'NONE', ( #161, #57, #295, #210 ) ) ;
#7 = VERTEX_POINT ( 'NONE', #35 ) ;
#8 = COORDINATED_UNIVERSAL_TIME_OFFSET ( 1, 0, .AHEAD. ) ;
#9 = DIRECTION ( 'NONE',  ( -1.000000000000000000, 0.000000000000000000, 0.000000000000000000 ) ) ;
#10 = CYLINDRICAL_SURFACE ( 'NONE', #28, 3.999999999999998224 ) ;
#11 = CARTESIAN_POINT ( 'NONE',  ( 0.000000000000000000, 0.000000000000000000, 0.000000000000000000 ) ) ;
#12 = CONICAL_SURFACE ( 'NONE', #307, 3.999999999999998224, 0.7853981633974428389 ) ;
#13 = DIRECTION ( 'NONE',  ( -0.000000000000000000, 0.000000000000000000, -1.000000000000000000 ) ) ;
#14 = UNCERTAINTY_MEASURE_WITH_UNIT (LENGTH_MEASURE( 1.000000000000000082E-05 ), #24, 'distance_accuracy_value', 'NONE');
#15 = PLANE ( 'NONE',  #173 ) ;
#16 = EDGE_CURVE ( 'NONE', #2, #70, #219, .T. ) ;
#17 = DATE_AND_TIME ( #211, #156 ) ;
#18 = APPROVAL_STATUS ( 'not_yet_approved' ) ;
#19 = LOCAL_TIME ( 15, 28, 42.00000000000000000, #152 ) ;
#20 = ORIENTED_EDGE ( 'NONE', *, *, #16, .F. ) ;
#21 = CYLINDRICAL_SURFACE ( 'NONE', #309, 3.999999999999999112 ) ;
#22 = EDGE_CURVE ( 'NONE', #187, #269, #132, .T. ) ;
#23 = ORIENTED_EDGE ( 'NONE', *, *, #207, .F. ) ;
#24 =( LENGTH_UNIT ( ) NAMED_UNIT ( * ) SI_UNIT ( .MILLI., .METRE. ) );
#25 = CONICAL_SURFACE ( 'NONE', #196, 3.999999999999998224, 0.7853981633974428389 ) ;
#26 = PERSON_AND_ORGANIZATION_ROLE ( 'creator' ) ;
#27 = ORIENTED_EDGE ( 'NONE', *, *, #216, .T. ) ;
#28 = AXIS2_PLACEMENT_3D ( 'NONE', #277, #61, #278 ) ;
#29 = EDGE_CURVE ( 'NONE', #100, #311, #285, .T. ) ;
#30 = ORIENTED_EDGE ( 'NONE', *, *, #146, .F. ) ;
#31 = PRODUCT_RELATED_PRODUCT_CATEGORY ( 'detail', '', ( #168 ) ) ;
#32 = EDGE_LOOP ( 'NONE', ( #123, #194 ) ) ;
#33 = ORIENTED_EDGE ( 'NONE', *, *, #5, .T. ) ;
#34 = EDGE_LOOP ( 'NONE', ( #78, #166, #30, #296 ) ) ;
#35 = CARTESIAN_POINT ( 'NONE',  ( 3.999999999999998224, 4.898587196589410857E-16, 42.19999999999998153 ) ) ;
#36 = CARTESIAN_POINT ( 'NONE',  ( 0.000000000000000000, 0.000000000000000000, 11.00000000000000000 ) ) ;
#37 = CARTESIAN_POINT ( 'NONE',  ( 0.000000000000000000, 3.999999999999998224, 11.00000000000000000 ) ) ;
#38 = AXIS2_PLACEMENT_3D ( 'NONE', #114, #137, #85 ) ;
#39 = EDGE_CURVE ( 'NONE', #100, #7, #288, .T. ) ;
#40 = DIRECTION ( 'NONE',  ( -0.000000000000000000, -0.000000000000000000, -1.000000000000000000 ) ) ;
#41 = CARTESIAN_POINT ( 'NONE',  ( 0.000000000000000000, 0.000000000000000000, 42.19999999999998153 ) ) ;
#42 = AXIS2_PLACEMENT_3D ( 'NONE', #11, #40, #134 ) ;
#43 = CARTESIAN_POINT ( 'NONE',  ( -3.999999999999998224, 0.000000000000000000, 0.000000000000000000 ) ) ;
#44 = CARTESIAN_POINT ( 'NONE',  ( 0.000000000000000000, 0.000000000000000000, 11.00000000000000000 ) ) ;
#45 = DIRECTION ( 'NONE',  ( 1.000000000000000000, 0.000000000000000000, 0.000000000000000000 ) ) ;
#46 = CARTESIAN_POINT ( 'NONE',  ( -3.199999999999990852, 0.000000000000000000, 43.00000000000000000 ) ) ;
#47 = EDGE_LOOP ( 'NONE', ( #23, #20 ) ) ;
#48 = COORDINATED_UNIVERSAL_TIME_OFFSET ( 1, 0, .AHEAD. ) ;
#49 = APPLICATION_CONTEXT ( 'configuration controlled 3d designs of mechanical parts and assemblies' ) ;
#50 = ADVANCED_FACE ( 'NONE', ( #129 ), #25, .T. ) ;
#51 = DIRECTION ( 'NONE',  ( -0.000000000000000000, -0.000000000000000000, 1.000000000000000000 ) ) ;
#52 = CARTESIAN_POINT ( 'NONE',  ( 3.999999999999998224, 4.898587196589410857E-16, 42.19999999999998153 ) ) ;
#53 = PRODUCT_DEFINITION_SHAPE ( 'NONE', 'NONE',  #232 ) ;
#54 = CARTESIAN_POINT ( 'NONE',  ( 0.000000000000000000, 0.000000000000000000, 11.00000000000000000 ) ) ;
#55 = ORIENTED_EDGE ( 'NONE', *, *, #189, .F. ) ;
#56 = ORIENTED_EDGE ( 'NONE', *, *, #251, .F. ) ;
#57 = ADVANCED_FACE ( 'NONE', ( #241 ), #102, .F. ) ;
#58 = PERSON_AND_ORGANIZATION_ROLE ( 'classification_officer' ) ;
#59 = AXIS2_PLACEMENT_3D ( 'NONE', #150, #125, #213 ) ;
#60 = FACE_OUTER_BOUND ( 'NONE', #34, .T. ) ;
#61 = DIRECTION ( 'NONE',  ( -0.000000000000000000, -0.000000000000000000, -1.000000000000000000 ) ) ;
#62 = PERSON ( 'NON SPECIFICATO', 'NON SPECIFICATO', 'NON SPECIFICATO', ('NON SPECIFICATO'), ('NON SPECIFICATO'), ('NON SPECIFICATO') ) ;
#63 = DIRECTION ( 'NONE',  ( -0.000000000000000000, -0.000000000000000000, -1.000000000000000000 ) ) ;
#64 = CARTESIAN_POINT ( 'NONE',  ( -3.999999999999998224, 0.000000000000000000, 42.19999999999998153 ) ) ;
#65 = AXIS2_PLACEMENT_3D ( 'NONE', #44, #280, #141 ) ;
#66 =( NAMED_UNIT ( * ) SI_UNIT ( $, .STERADIAN. ) SOLID_ANGLE_UNIT ( ) );
#67 = FACE_OUTER_BOUND ( 'NONE', #144, .T. ) ;
#68 = ORIENTED_EDGE ( 'NONE', *, *, #276, .T. ) ;
#69 = SECURITY_CLASSIFICATION_LEVEL ( 'unclassified' ) ;
#70 = VERTEX_POINT ( 'NONE', #271 ) ;
#71 = DIRECTION ( 'NONE',  ( 0.000000000000000000, 0.000000000000000000, 1.000000000000000000 ) ) ;
#72 = DATE_AND_TIME ( #229, #221 ) ;
#73 = EDGE_LOOP ( 'NONE', ( #27, #217 ) ) ;
#74 = PRODUCT_DEFINITION_FORMATION_WITH_SPECIFIED_SOURCE ( 'TUTTO', '', #168, .NOT_KNOWN. ) ;
#75 = ORIENTED_EDGE ( 'NONE', *, *, #276, .F. ) ;
#76 = EDGE_CURVE ( 'NONE', #70, #238, #243, .T. ) ;
#77 = CC_DESIGN_PERSON_AND_ORGANIZATION_ASSIGNMENT ( #109, #58, ( #287 ) ) ;
#78 = ORIENTED_EDGE ( 'NONE', *, *, #29, .F. ) ;
#79 = DIRECTION ( 'NONE',  ( 0.000000000000000000, -0.000000000000000000, 1.000000000000000000 ) ) ;
#80 = APPROVAL_PERSON_ORGANIZATION ( #283, #261, #167 ) ;
#81 = CARTESIAN_POINT ( 'NONE',  ( 0.000000000000000000, 0.000000000000000000, 0.000000000000000000 ) ) ;
#82 = DIRECTION ( 'NONE',  ( 1.000000000000000000, 0.000000000000000000, -0.000000000000000000 ) ) ;
#83 = DIRECTION ( 'NONE',  ( -0.000000000000000000, -0.000000000000000000, -1.000000000000000000 ) ) ;
#84 = APPROVAL_PERSON_ORGANIZATION ( #128, #284, #220 ) ;
#85 = DIRECTION ( 'NONE',  ( 1.000000000000000000, 0.000000000000000000, 0.000000000000000000 ) ) ;
#86 = CC_DESIGN_PERSON_AND_ORGANIZATION_ASSIGNMENT ( #188, #281, ( #74 ) ) ;
#87 = DIRECTION ( 'NONE',  ( -0.000000000000000000, -0.000000000000000000, 1.000000000000000000 ) ) ;
#88 = CARTESIAN_POINT ( 'NONE',  ( -3.999999999999999112, 4.898587196589411843E-16, 11.00000000000000000 ) ) ;
#89 = AXIS2_PLACEMENT_3D ( 'NONE', #81, #51, #240 ) ;
#90 = LOCAL_TIME ( 15, 28, 42.00000000000000000, #162 ) ;
#91 = DIRECTION ( 'NONE',  ( 1.000000000000000000, 0.000000000000000000, 0.000000000000000000 ) ) ;
#92 = AXIS2_PLACEMENT_3D ( 'NONE', #37, #198, #225 ) ;
#93 = PERSON_AND_ORGANIZATION ( #62, #176 ) ;
#94 = ORIENTED_EDGE ( 'NONE', *, *, #312, .T. ) ;
#95 = VECTOR ( 'NONE', #242, 1000.000000000000000 ) ;
#96 = ORIENTED_EDGE ( 'NONE', *, *, #207, .T. ) ;
#97 = ADVANCED_FACE ( 'NONE', ( #298 ), #153, .T. ) ;
#98 = AXIS2_PLACEMENT_3D ( 'NONE', #160, #204, #279 ) ;
#99 = MANIFOLD_SOLID_BREP ( 'SmussoGambo', #246 ) ;
#100 = VERTEX_POINT ( 'NONE', #301 ) ;
#101 = ADVANCED_FACE ( 'NONE', ( #224 ), #15, .T. ) ;
#102 = PLANE ( 'NONE',  #120 ) ;
#103 = ADVANCED_FACE ( 'NONE', ( #60 ), #12, .T. ) ;
#104 = ORIENTED_EDGE ( 'NONE', *, *, #189, .T. ) ;
#105 = AXIS2_PLACEMENT_3D ( 'NONE', #110, #228, #222 ) ;
#106 = DATE_AND_TIME ( #223, #294 ) ;
#107 = CARTESIAN_POINT ( 'NONE',  ( 4.000000000000000000, 4.898587196589412829E-16, 11.00000000000000000 ) ) ;
#108 = DIRECTION ( 'NONE',  ( -0.000000000000000000, -0.000000000000000000, 1.000000000000000000 ) ) ;
#109 = PERSON_AND_ORGANIZATION ( #62, #176 ) ;
#110 = CARTESIAN_POINT ( 'NONE',  ( 0.000000000000000000, 0.000000000000000000, 43.00000000000000000 ) ) ;
#111 = DESIGN_CONTEXT ( 'detailed design', #155, 'design' ) ;
#112 = VECTOR ( 'NONE', #63, 1000.000000000000000 ) ;
#113 = CARTESIAN_POINT ( 'NONE',  ( -4.000000000000000000, 0.000000000000000000, 11.00000000000000000 ) ) ;
#114 = CARTESIAN_POINT ( 'NONE',  ( 0.000000000000000000, 0.000000000000000000, 0.000000000000000000 ) ) ;
#115 = DATE_TIME_ROLE ( 'creation_date' ) ;
#116 = AXIS2_PLACEMENT_3D ( 'NONE', #54, #171, #147 ) ;
#117 = APPROVAL_PERSON_ORGANIZATION ( #93, #126, #191 ) ;
#118 =( NAMED_UNIT ( * ) PLANE_ANGLE_UNIT ( ) SI_UNIT ( $, .RADIAN. ) );
#119 = ORIENTED_EDGE ( 'NONE', *, *, #216, .F. ) ;
#120 = AXIS2_PLACEMENT_3D ( 'NONE', #195, #79, #175 ) ;
#121 = COORDINATED_UNIVERSAL_TIME_OFFSET ( 1, 0, .AHEAD. ) ;
#122 = CC_DESIGN_APPROVAL ( #126, ( #74 ) ) ;
#123 = ORIENTED_EDGE ( 'NONE', *, *, #289, .T. ) ;
#124 = CARTESIAN_POINT ( 'NONE',  ( 0.000000000000000000, 0.000000000000000000, 42.19999999999998153 ) ) ;
#125 = DIRECTION ( 'NONE',  ( 0.000000000000000000, 0.000000000000000000, 1.000000000000000000 ) ) ;
#126 = APPROVAL ( #310, 'NON SPECIFICATO' ) ;
#127 = EDGE_LOOP ( 'NONE', ( #96, #68, #313, #177 ) ) ;
#128 = PERSON_AND_ORGANIZATION ( #62, #176 ) ;
#129 = FACE_OUTER_BOUND ( 'NONE', #1, .T. ) ;
#130 = APPROVAL_STATUS ( 'not_yet_approved' ) ;
#131 = ORIENTED_EDGE ( 'NONE', *, *, #251, .T. ) ;
#132 = CIRCLE ( 'NONE', #116, 4.000000000000000000 ) ;
#133 = FACE_OUTER_BOUND ( 'NONE', #190, .T. ) ;
#134 = DIRECTION ( 'NONE',  ( -1.000000000000000000, 0.000000000000000000, 0.000000000000000000 ) ) ;
#135 = DIRECTION ( 'NONE',  ( -1.000000000000000000, 0.000000000000000000, 0.000000000000000000 ) ) ;
#136 = CC_DESIGN_PERSON_AND_ORGANIZATION_ASSIGNMENT ( #209, #306, ( #168 ) ) ;
#137 = DIRECTION ( 'NONE',  ( -0.000000000000000000, -0.000000000000000000, 1.000000000000000000 ) ) ;
#138 = CARTESIAN_POINT ( 'NONE',  ( 0.000000000000000000, -4.286263797015734919E-15, 43.00000000000000000 ) ) ;
#139 = DIRECTION ( 'NONE',  ( -0.000000000000000000, -0.000000000000000000, 1.000000000000000000 ) ) ;
#140 = CIRCLE ( 'NONE', #98, 4.000000000000000000 ) ;
#141 = DIRECTION ( 'NONE',  ( 1.000000000000000000, 0.000000000000000000, 0.000000000000000000 ) ) ;
#142 = APPLICATION_PROTOCOL_DEFINITION ( 'international standard', 'config_control_design', 1994, #49 ) ;
#143 = CIRCLE ( 'NONE', #230, 3.999999999999998224 ) ;
#144 = EDGE_LOOP ( 'NONE', ( #75, #265, #293, #273 ) ) ;
#145 = AXIS2_PLACEMENT_3D ( 'NONE', #184, #13, #135 ) ;
#146 = EDGE_CURVE ( 'NONE', #148, #7, #143, .T. ) ;
#147 = DIRECTION ( 'NONE',  ( -1.000000000000000000, 0.000000000000000000, 0.000000000000000000 ) ) ;
#148 = VERTEX_POINT ( 'NONE', #252 ) ;
#149 = APPROVAL_DATE_TIME ( #106, #284 ) ;
#150 = CARTESIAN_POINT ( 'NONE',  ( 0.000000000000000000, 0.000000000000000000, 43.00000000000000000 ) ) ;
#151 = CARTESIAN_POINT ( 'NONE',  ( 0.000000000000000000, 0.000000000000000000, 42.19999999999998153 ) ) ;
#152 = COORDINATED_UNIVERSAL_TIME_OFFSET ( 1, 0, .AHEAD. ) ;
#153 = CYLINDRICAL_SURFACE ( 'NONE', #42, 3.999999999999998224 ) ;
#154 = DIRECTION ( 'NONE',  ( 1.000000000000000000, 0.000000000000000000, 0.000000000000000000 ) ) ;
#155 = APPLICATION_CONTEXT ( 'configuration controlled 3d designs of mechanical parts and assemblies' ) ;
#156 = LOCAL_TIME ( 15, 28, 42.00000000000000000, #121 ) ;
#157 = CARTESIAN_POINT ( 'NONE',  ( 3.999999999999998224, 0.000000000000000000, 11.00000000000000000 ) ) ;
#158 = CARTESIAN_POINT ( 'NONE',  ( -3.999999999999998224, 4.898587196589411843E-16, 11.00000000000000000 ) ) ;
#159 = VECTOR ( 'NONE', #197, 1000.000000000000000 ) ;
#160 = CARTESIAN_POINT ( 'NONE',  ( 0.000000000000000000, 0.000000000000000000, 11.00000000000000000 ) ) ;
#161 = ADVANCED_FACE ( 'NONE', ( #302 ), #275, .T. ) ;
#162 = COORDINATED_UNIVERSAL_TIME_OFFSET ( 1, 0, .AHEAD. ) ;
#163 = CARTESIAN_POINT ( 'NONE',  ( 0.000000000000000000, 0.000000000000000000, 11.00000000000000000 ) ) ;
#164 = PERSON_AND_ORGANIZATION_ROLE ( 'creator' ) ;
#165 = CIRCLE ( 'NONE', #183, 3.999999999999998224 ) ;
#166 = ORIENTED_EDGE ( 'NONE', *, *, #39, .T. ) ;
#167 = APPROVAL_ROLE ( '' ) ;
#168 = PRODUCT ( '552131', '552131', '', ( #258 ) ) ;
#169 = DIRECTION ( 'NONE',  ( 1.000000000000000000, 0.000000000000000000, 0.000000000000000000 ) ) ;
#170 = AXIS2_PLACEMENT_3D ( 'NONE', #36, #108, #154 ) ;
#171 = DIRECTION ( 'NONE',  ( -0.000000000000000000, -0.000000000000000000, -1.000000000000000000 ) ) ;
#172 = EDGE_LOOP ( 'NONE', ( #55, #33, #131, #259 ) ) ;
#173 = AXIS2_PLACEMENT_3D ( 'NONE', #138, #245, #82 ) ;
#174 = CC_DESIGN_DATE_AND_TIME_ASSIGNMENT ( #292, #267, ( #287 ) ) ;
#175 = DIRECTION ( 'NONE',  ( 1.000000000000000000, 0.000000000000000000, 0.000000000000000000 ) ) ;
#176 = ORGANIZATION ( 'NON SPECIFICATO', 'NON SPECIFICATO', '' ) ;
#177 = ORIENTED_EDGE ( 'NONE', *, *, #76, .F. ) ;
#178 = DIRECTION ( 'NONE',  ( 1.000000000000000000, 0.000000000000000000, 0.000000000000000000 ) ) ;
#179 = CARTESIAN_POINT ( 'NONE',  ( 3.999999999999998224, 4.898587196589410857E-16, 0.000000000000000000 ) ) ;
#180 = CC_DESIGN_DATE_AND_TIME_ASSIGNMENT ( #17, #115, ( #232 ) ) ;
#181 = FACE_OUTER_BOUND ( 'NONE', #286, .T. ) ;
#182 = DIRECTION ( 'NONE',  ( -0.000000000000000000, -0.000000000000000000, -1.000000000000000000 ) ) ;
#183 = AXIS2_PLACEMENT_3D ( 'NONE', #124, #212, #169 ) ;
#184 = CARTESIAN_POINT ( 'NONE',  ( 0.000000000000000000, 4.000000000000000000, 11.00000000000000000 ) ) ;
#185 = CIRCLE ( 'NONE', #65, 3.999999999999998224 ) ;
#186 = PERSON_AND_ORGANIZATION ( #62, #176 ) ;
#187 = VERTEX_POINT ( 'NONE', #107 ) ;
#188 = PERSON_AND_ORGANIZATION ( #62, #176 ) ;
#189 = EDGE_CURVE ( 'NONE', #7, #187, #274, .T. ) ;
#190 = EDGE_LOOP ( 'NONE', ( #193, #104, #235, #56 ) ) ;
#191 = APPROVAL_ROLE ( '' ) ;
#192 = ORIENTED_EDGE ( 'NONE', *, *, #290, .T. ) ;
#193 = ORIENTED_EDGE ( 'NONE', *, *, #146, .T. ) ;
#194 = ORIENTED_EDGE ( 'NONE', *, *, #22, .T. ) ;
#195 = CARTESIAN_POINT ( 'NONE',  ( 0.000000000000000000, 0.000000000000000000, 0.000000000000000000 ) ) ;
#196 = AXIS2_PLACEMENT_3D ( 'NONE', #151, #3, #266 ) ;
#197 = DIRECTION ( 'NONE',  ( -0.000000000000000000, -0.000000000000000000, 1.000000000000000000 ) ) ;
#198 = DIRECTION ( 'NONE',  ( 0.000000000000000000, 0.000000000000000000, -1.000000000000000000 ) ) ;
#199 = LINE ( 'NONE', #64, #264 ) ;
#200 = MANIFOLD_SOLID_BREP ( 'Tagliente', #6 ) ;
#201 = DIRECTION ( 'NONE',  ( -0.7071067811865436870, 0.000000000000000000, -0.7071067811865513475 ) ) ;
#202 = CC_DESIGN_SECURITY_CLASSIFICATION ( #287, ( #74 ) ) ;
#203 = LINE ( 'NONE', #88, #254 ) ;
#204 = DIRECTION ( 'NONE',  ( -0.000000000000000000, -0.000000000000000000, -1.000000000000000000 ) ) ;
#205 = DATE_AND_TIME ( #255, #90 ) ;
#206 = VECTOR ( 'NONE', #248, 1000.000000000000000 ) ;
#207 = EDGE_CURVE ( 'NONE', #70, #2, #305, .T. ) ;
#208 = CARTESIAN_POINT ( 'NONE',  ( 0.000000000000000000, 0.000000000000000000, 0.000000000000000000 ) ) ;
#209 = PERSON_AND_ORGANIZATION ( #62, #176 ) ;
#210 = ADVANCED_FACE ( 'NONE', ( #181 ), #226, .F. ) ;
#211 = CALENDAR_DATE ( 2024, 12, 2 ) ;
#212 = DIRECTION ( 'NONE',  ( -0.000000000000000000, -0.000000000000000000, -1.000000000000000000 ) ) ;
#213 = DIRECTION ( 'NONE',  ( 1.000000000000000000, 0.000000000000000000, 0.000000000000000000 ) ) ;
#214 = CARTESIAN_POINT ( 'NONE',  ( -4.000000000000000000, 4.898587196589412829E-16, 0.000000000000000000 ) ) ;
#215 = ADVANCED_FACE ( 'NONE', ( #133 ), #10, .T. ) ;
#216 = EDGE_CURVE ( 'NONE', #311, #100, #249, .T. ) ;
#217 = ORIENTED_EDGE ( 'NONE', *, *, #29, .T. ) ;
#218 = CARTESIAN_POINT ( 'NONE',  ( 3.999999999999999112, 0.000000000000000000, 11.00000000000000000 ) ) ;
#219 = CIRCLE ( 'NONE', #89, 4.000000000000000000 ) ;
#220 = APPROVAL_ROLE ( '' ) ;
#221 = LOCAL_TIME ( 15, 28, 42.00000000000000000, #48 ) ;
#222 = DIRECTION ( 'NONE',  ( 1.000000000000000000, 0.000000000000000000, 0.000000000000000000 ) ) ;
#223 = CALENDAR_DATE ( 2024, 12, 2 ) ;
#224 = FACE_OUTER_BOUND ( 'NONE', #73, .T. ) ;
#225 = DIRECTION ( 'NONE',  ( -1.000000000000000000, 0.000000000000000000, -0.000000000000000000 ) ) ;
#226 = PLANE ( 'NONE',  #92 ) ;
#227 = AXIS2_PLACEMENT_3D ( 'NONE', #163, #233, #91 ) ;
#228 = DIRECTION ( 'NONE',  ( 0.000000000000000000, 0.000000000000000000, 1.000000000000000000 ) ) ;
#229 = CALENDAR_DATE ( 2024, 12, 2 ) ;
#230 = AXIS2_PLACEMENT_3D ( 'NONE', #297, #182, #178 ) ;
#231 = CC_DESIGN_APPROVAL ( #284, ( #287 ) ) ;
#232 = PRODUCT_DEFINITION ( 'NON CONOSCIUTO', '', #74, #111 ) ;
#233 = DIRECTION ( 'NONE',  ( -0.000000000000000000, -0.000000000000000000, 1.000000000000000000 ) ) ;
#234 = PERSON_AND_ORGANIZATION ( #62, #176 ) ;
#235 = ORIENTED_EDGE ( 'NONE', *, *, #289, .F. ) ;
#236 = CC_DESIGN_PERSON_AND_ORGANIZATION_ASSIGNMENT ( #234, #26, ( #232 ) ) ;
#237 =( GEOMETRIC_REPRESENTATION_CONTEXT ( 3 ) GLOBAL_UNCERTAINTY_ASSIGNED_CONTEXT ( ( #14 ) ) GLOBAL_UNIT_ASSIGNED_CONTEXT ( ( #24, #118, #66 ) ) REPRESENTATION_CONTEXT ( 'NONE', 'WORKASPACE' ) );
#238 = VERTEX_POINT ( 'NONE', #157 ) ;
#239 = EDGE_CURVE ( 'NONE', #311, #148, #199, .T. ) ;
#240 = DIRECTION ( 'NONE',  ( 1.000000000000000000, 0.000000000000000000, 0.000000000000000000 ) ) ;
#241 = FACE_OUTER_BOUND ( 'NONE', #47, .T. ) ;
#242 = DIRECTION ( 'NONE',  ( 0.7071067811865436870, 8.659560562354886020E-17, -0.7071067811865513475 ) ) ;
#243 = LINE ( 'NONE', #218, #159 ) ;
#244 = ADVANCED_FACE ( 'NONE', ( #253 ), #250, .T. ) ;
#245 = DIRECTION ( 'NONE',  ( 0.000000000000000000, 0.000000000000000000, 1.000000000000000000 ) ) ;
#246 = CLOSED_SHELL ( 'NONE', ( #103, #215, #244, #101, #97, #50 ) ) ;
#247 = CIRCLE ( 'NONE', #227, 3.999999999999998224 ) ;
#248 = DIRECTION ( 'NONE',  ( -0.000000000000000000, -0.000000000000000000, -1.000000000000000000 ) ) ;
#249 = CIRCLE ( 'NONE', #105, 3.199999999999990852 ) ;
#250 = PLANE ( 'NONE',  #145 ) ;
#251 = EDGE_CURVE ( 'NONE', #148, #269, #299, .T. ) ;
#252 = CARTESIAN_POINT ( 'NONE',  ( -3.999999999999998224, 0.000000000000000000, 42.19999999999998153 ) ) ;
#253 = FACE_OUTER_BOUND ( 'NONE', #32, .T. ) ;
#254 = VECTOR ( 'NONE', #87, 1000.000000000000000 ) ;
#255 = CALENDAR_DATE ( 2024, 12, 2 ) ;
#256 = CARTESIAN_POINT ( 'NONE',  ( 0.000000000000000000, 0.000000000000000000, 11.00000000000000000 ) ) ;
#257 = APPLICATION_PROTOCOL_DEFINITION ( 'international standard', 'config_control_design', 1994, #155 ) ;
#258 = MECHANICAL_CONTEXT ( 'NONE', #49, 'mechanical' ) ;
#259 = ORIENTED_EDGE ( 'NONE', *, *, #22, .F. ) ;
#260 = DIRECTION ( 'NONE',  ( 1.000000000000000000, 0.000000000000000000, 0.000000000000000000 ) ) ;
#261 = APPROVAL ( #18, 'NON SPECIFICATO' ) ;
#262 = VERTEX_POINT ( 'NONE', #158 ) ;
#263 = ORIENTED_EDGE ( 'NONE', *, *, #5, .F. ) ;
#264 = VECTOR ( 'NONE', #201, 1000.000000000000000 ) ;
#265 = ORIENTED_EDGE ( 'NONE', *, *, #16, .T. ) ;
#266 = DIRECTION ( 'NONE',  ( -1.000000000000000000, 0.000000000000000000, 0.000000000000000000 ) ) ;
#267 = DATE_TIME_ROLE ( 'classification_date' ) ;
#268 = CC_DESIGN_PERSON_AND_ORGANIZATION_ASSIGNMENT ( #186, #164, ( #74 ) ) ;
#269 = VERTEX_POINT ( 'NONE', #113 ) ;
#270 = AXIS2_PLACEMENT_3D ( 'NONE', #208, #71, #260 ) ;
#271 = CARTESIAN_POINT ( 'NONE',  ( 4.000000000000000000, 0.000000000000000000, 0.000000000000000000 ) ) ;
#272 = SHAPE_DEFINITION_REPRESENTATION ( #53, #300 ) ;
#273 = ORIENTED_EDGE ( 'NONE', *, *, #290, .F. ) ;
#274 = LINE ( 'NONE', #179, #206 ) ;
#275 = CYLINDRICAL_SURFACE ( 'NONE', #170, 3.999999999999999112 ) ;
#276 = EDGE_CURVE ( 'NONE', #2, #262, #203, .T. ) ;
#277 = CARTESIAN_POINT ( 'NONE',  ( 0.000000000000000000, 0.000000000000000000, 0.000000000000000000 ) ) ;
#278 = DIRECTION ( 'NONE',  ( -1.000000000000000000, 0.000000000000000000, 0.000000000000000000 ) ) ;
#279 = DIRECTION ( 'NONE',  ( -1.000000000000000000, 0.000000000000000000, 0.000000000000000000 ) ) ;
#280 = DIRECTION ( 'NONE',  ( -0.000000000000000000, -0.000000000000000000, 1.000000000000000000 ) ) ;
#281 = PERSON_AND_ORGANIZATION_ROLE ( 'design_supplier' ) ;
#282 = ORIENTED_EDGE ( 'NONE', *, *, #39, .F. ) ;
#283 = PERSON_AND_ORGANIZATION ( #62, #176 ) ;
#284 = APPROVAL ( #130, 'NON SPECIFICATO' ) ;
#285 = CIRCLE ( 'NONE', #59, 3.199999999999990852 ) ;
#286 = EDGE_LOOP ( 'NONE', ( #94, #192 ) ) ;
#287 = SECURITY_CLASSIFICATION ( '', '', #69 ) ;
#288 = LINE ( 'NONE', #52, #95 ) ;
#289 = EDGE_CURVE ( 'NONE', #269, #187, #140, .T. ) ;
#290 = EDGE_CURVE ( 'NONE', #262, #238, #185, .T. ) ;
#291 = ORIENTED_EDGE ( 'NONE', *, *, #239, .T. ) ;
#292 = DATE_AND_TIME ( #4, #19 ) ;
#293 = ORIENTED_EDGE ( 'NONE', *, *, #76, .T. ) ;
#294 = LOCAL_TIME ( 15, 28, 42.00000000000000000, #8 ) ;
#295 = ADVANCED_FACE ( 'NONE', ( #67 ), #21, .T. ) ;
#296 = ORIENTED_EDGE ( 'NONE', *, *, #239, .F. ) ;
#297 = CARTESIAN_POINT ( 'NONE',  ( 0.000000000000000000, 0.000000000000000000, 42.19999999999998153 ) ) ;
#298 = FACE_OUTER_BOUND ( 'NONE', #172, .T. ) ;
#299 = LINE ( 'NONE', #43, #112 ) ;
#300 = ADVANCED_BREP_SHAPE_REPRESENTATION ( '552131', ( #200, #99, #270 ), #237 ) ;
#301 = CARTESIAN_POINT ( 'NONE',  ( 3.199999999999990852, 4.408728476930465235E-16, 43.00000000000000000 ) ) ;
#302 = FACE_OUTER_BOUND ( 'NONE', #127, .T. ) ;
#303 = APPROVAL_DATE_TIME ( #205, #126 ) ;
#304 = CC_DESIGN_APPROVAL ( #261, ( #232 ) ) ;
#305 = CIRCLE ( 'NONE', #38, 4.000000000000000000 ) ;
#306 = PERSON_AND_ORGANIZATION_ROLE ( 'design_owner' ) ;
#307 = AXIS2_PLACEMENT_3D ( 'NONE', #41, #83, #9 ) ;
#308 = APPROVAL_DATE_TIME ( #72, #261 ) ;
#309 = AXIS2_PLACEMENT_3D ( 'NONE', #256, #139, #45 ) ;
#310 = APPROVAL_STATUS ( 'not_yet_approved' ) ;
#311 = VERTEX_POINT ( 'NONE', #46 ) ;
#312 = EDGE_CURVE ( 'NONE', #238, #262, #247, .T. ) ;
#313 = ORIENTED_EDGE ( 'NONE', *, *, #312, .F. ) ;
ENDSEC;
END-ISO-10303-21;
