ISO-10303-21;
HEADER;
FILE_DESCRIPTION (( 'STEP AP203' ),
    '1' );
FILE_NAME ('552132.step',
    '2024-02-12T14:28:43',
    ( '' ),
    ( '' ),
    'SwSTEP 2.0',
    'SolidWorks 2019',
    '' );
FILE_SCHEMA (( 'CONFIG_CONTROL_DESIGN' ));
ENDSEC;

DATA;
#1 = FACE_OUTER_BOUND ( 'NONE', #270, .T. ) ;
#2 = ADVANCED_FACE ( 'NONE', ( #277 ), #254, .T. ) ;
#3 = AXIS2_PLACEMENT_3D ( 'NONE', #235, #283, #113 ) ;
#4 = DIRECTION ( 'NONE',  ( 0.000000000000000000, 0.000000000000000000, 1.000000000000000000 ) ) ;
#5 = CALENDAR_DATE ( 2024, 12, 2 ) ;
#6 = AXIS2_PLACEMENT_3D ( 'NONE', #244, #4, #167 ) ;
#7 = DIRECTION ( 'NONE',  ( 1.000000000000000000, 0.000000000000000000, 0.000000000000000000 ) ) ;
#8 = CIRCLE ( 'NONE', #242, 4.999999999999999112 ) ;
#9 = ORIENTED_EDGE ( 'NONE', *, *, #253, .F. ) ;
#10 = APPROVAL_ROLE ( '' ) ;
#11 = EDGE_LOOP ( 'NONE', ( #52, #199 ) ) ;
#12 = CALENDAR_DATE ( 2024, 12, 2 ) ;
#13 = EDGE_LOOP ( 'NONE', ( #173, #75, #153, #148 ) ) ;
#14 = CONICAL_SURFACE ( 'NONE', #149, 4.999999999999995559, 0.7853981633974543852 ) ;
#15 = CALENDAR_DATE ( 2024, 12, 2 ) ;
#16 = EDGE_LOOP ( 'NONE', ( #156, #130, #202, #272 ) ) ;
#17 = DIRECTION ( 'NONE',  ( -0.000000000000000000, -0.000000000000000000, -1.000000000000000000 ) ) ;
#18 = DIRECTION ( 'NONE',  ( -0.7071067811865517916, 0.000000000000000000, -0.7071067811865432429 ) ) ;
#19 = DIRECTION ( 'NONE',  ( 1.000000000000000000, 0.000000000000000000, 0.000000000000000000 ) ) ;
#20 = DIRECTION ( 'NONE',  ( -1.000000000000000000, 0.000000000000000000, 0.000000000000000000 ) ) ;
#21 = CARTESIAN_POINT ( 'NONE',  ( -3.999999999999989786, 0.000000000000000000, 50.00000000000000000 ) ) ;
#22 = LOCAL_TIME ( 15, 28, 43.00000000000000000, #304 ) ;
#23 = APPROVAL_PERSON_ORGANIZATION ( #94, #191, #123 ) ;
#24 = DIRECTION ( 'NONE',  ( -0.000000000000000000, -0.000000000000000000, -1.000000000000000000 ) ) ;
#25 = DIRECTION ( 'NONE',  ( -0.000000000000000000, -0.000000000000000000, 1.000000000000000000 ) ) ;
#26 = ADVANCED_FACE ( 'NONE', ( #139 ), #109, .T. ) ;
#27 = CARTESIAN_POINT ( 'NONE',  ( 4.999999999999999112, 0.000000000000000000, 13.00000000000000000 ) ) ;
#28 = DIRECTION ( 'NONE',  ( 0.000000000000000000, 0.000000000000000000, 1.000000000000000000 ) ) ;
#29 = EDGE_CURVE ( 'NONE', #172, #77, #8, .T. ) ;
#30 =( NAMED_UNIT ( * ) PLANE_ANGLE_UNIT ( ) SI_UNIT ( $, .RADIAN. ) );
#31 = ORIENTED_EDGE ( 'NONE', *, *, #256, .F. ) ;
#32 = APPROVAL_STATUS ( 'not_yet_approved' ) ;
#33 = EDGE_CURVE ( 'NONE', #178, #224, #132, .T. ) ;
#34 = EDGE_LOOP ( 'NONE', ( #122, #295 ) ) ;
#35 = DATE_AND_TIME ( #12, #264 ) ;
#36 = ORIENTED_EDGE ( 'NONE', *, *, #256, .T. ) ;
#37 = PERSON_AND_ORGANIZATION ( #168, #82 ) ;
#38 = AXIS2_PLACEMENT_3D ( 'NONE', #296, #147, #220 ) ;
#39 = ORIENTED_EDGE ( 'NONE', *, *, #209, .T. ) ;
#40 = DIRECTION ( 'NONE',  ( -1.000000000000000000, 0.000000000000000000, 0.000000000000000000 ) ) ;
#41 = LINE ( 'NONE', #134, #230 ) ;
#42 = VECTOR ( 'NONE', #25, 1000.000000000000000 ) ;
#43 = CARTESIAN_POINT ( 'NONE',  ( 0.000000000000000000, 0.000000000000000000, 13.00000000000000000 ) ) ;
#44 = CARTESIAN_POINT ( 'NONE',  ( 5.000000000000000000, 0.000000000000000000, 0.000000000000000000 ) ) ;
#45 = CARTESIAN_POINT ( 'NONE',  ( 0.000000000000000000, 4.999999999999999112, 13.00000000000000000 ) ) ;
#46 = EDGE_CURVE ( 'NONE', #224, #54, #179, .T. ) ;
#47 = AXIS2_PLACEMENT_3D ( 'NONE', #45, #233, #20 ) ;
#48 = CYLINDRICAL_SURFACE ( 'NONE', #87, 4.999999999999999112 ) ;
#49 = DIRECTION ( 'NONE',  ( -0.000000000000000000, -0.000000000000000000, 1.000000000000000000 ) ) ;
#50 = CALENDAR_DATE ( 2024, 12, 2 ) ;
#51 = DIRECTION ( 'NONE',  ( -0.000000000000000000, -0.000000000000000000, -1.000000000000000000 ) ) ;
#52 = ORIENTED_EDGE ( 'NONE', *, *, #46, .T. ) ;
#53 =( NAMED_UNIT ( * ) SI_UNIT ( $, .STERADIAN. ) SOLID_ANGLE_UNIT ( ) );
#54 = VERTEX_POINT ( 'NONE', #203 ) ;
#55 = ORIENTED_EDGE ( 'NONE', *, *, #29, .F. ) ;
#56 = DATE_TIME_ROLE ( 'classification_date' ) ;
#57 = VERTEX_POINT ( 'NONE', #21 ) ;
#58 = APPROVAL_STATUS ( 'not_yet_approved' ) ;
#59 = CC_DESIGN_PERSON_AND_ORGANIZATION_ASSIGNMENT ( #177, #200, ( #60 ) ) ;
#60 = PRODUCT_DEFINITION_FORMATION_WITH_SPECIFIED_SOURCE ( 'TUTTO', '', #232, .NOT_KNOWN. ) ;
#61 = FACE_OUTER_BOUND ( 'NONE', #305, .T. ) ;
#62 = CARTESIAN_POINT ( 'NONE',  ( 4.999999999999999112, 0.000000000000000000, 13.00000000000000000 ) ) ;
#63 = DIRECTION ( 'NONE',  ( -0.000000000000000000, -0.000000000000000000, -1.000000000000000000 ) ) ;
#64 = CIRCLE ( 'NONE', #301, 5.000000000000000000 ) ;
#65 = AXIS2_PLACEMENT_3D ( 'NONE', #184, #280, #231 ) ;
#66 = CARTESIAN_POINT ( 'NONE',  ( -4.999999999999995559, 0.000000000000000000, 0.000000000000000000 ) ) ;
#67 = FACE_OUTER_BOUND ( 'NONE', #252, .T. ) ;
#68 = CARTESIAN_POINT ( 'NONE',  ( 0.000000000000000000, 0.000000000000000000, 49.00000000000000711 ) ) ;
#69 = EDGE_CURVE ( 'NONE', #57, #106, #105, .T. ) ;
#70 = CIRCLE ( 'NONE', #98, 5.000000000000000000 ) ;
#71 = PLANE ( 'NONE',  #287 ) ;
#72 = COORDINATED_UNIVERSAL_TIME_OFFSET ( 1, 0, .AHEAD. ) ;
#73 = DATE_TIME_ROLE ( 'creation_date' ) ;
#74 = ORIENTED_EDGE ( 'NONE', *, *, #33, .F. ) ;
#75 = ORIENTED_EDGE ( 'NONE', *, *, #69, .F. ) ;
#76 = CONICAL_SURFACE ( 'NONE', #38, 4.999999999999995559, 0.7853981633974543852 ) ;
#77 = VERTEX_POINT ( 'NONE', #262 ) ;
#78 = PERSON_AND_ORGANIZATION ( #168, #82 ) ;
#79 = EDGE_LOOP ( 'NONE', ( #126, #297, #222, #176 ) ) ;
#80 = CC_DESIGN_DATE_AND_TIME_ASSIGNMENT ( #190, #73, ( #154 ) ) ;
#81 = DIRECTION ( 'NONE',  ( 0.000000000000000000, 0.000000000000000000, 1.000000000000000000 ) ) ;
#82 = ORGANIZATION ( 'NON SPECIFICATO', 'NON SPECIFICATO', '' ) ;
#83 = CARTESIAN_POINT ( 'NONE',  ( 4.999999999999995559, 6.123233995736761352E-16, 49.00000000000000711 ) ) ;
#84 = LINE ( 'NONE', #83, #294 ) ;
#85 = PRODUCT_RELATED_PRODUCT_CATEGORY ( 'detail', '', ( #232 ) ) ;
#86 = DIRECTION ( 'NONE',  ( -0.000000000000000000, -0.000000000000000000, 1.000000000000000000 ) ) ;
#87 = AXIS2_PLACEMENT_3D ( 'NONE', #240, #90, #286 ) ;
#88 = EDGE_CURVE ( 'NONE', #77, #172, #145, .T. ) ;
#89 = CARTESIAN_POINT ( 'NONE',  ( 0.000000000000000000, 0.000000000000000000, 50.00000000000000000 ) ) ;
#90 = DIRECTION ( 'NONE',  ( -0.000000000000000000, -0.000000000000000000, 1.000000000000000000 ) ) ;
#91 = DIRECTION ( 'NONE',  ( -0.000000000000000000, -0.000000000000000000, 1.000000000000000000 ) ) ;
#92 = DIRECTION ( 'NONE',  ( -1.000000000000000000, 0.000000000000000000, 0.000000000000000000 ) ) ;
#93 = VECTOR ( 'NONE', #18, 1000.000000000000000 ) ;
#94 = PERSON_AND_ORGANIZATION ( #168, #82 ) ;
#95 = APPROVAL_DATE_TIME ( #144, #191 ) ;
#96 = CC_DESIGN_DATE_AND_TIME_ASSIGNMENT ( #151, #56, ( #110 ) ) ;
#97 = LOCAL_TIME ( 15, 28, 43.00000000000000000, #197 ) ;
#98 = AXIS2_PLACEMENT_3D ( 'NONE', #117, #91, #288 ) ;
#99 = AXIS2_PLACEMENT_3D ( 'NONE', #228, #17, #112 ) ;
#100 = APPLICATION_PROTOCOL_DEFINITION ( 'international standard', 'config_control_design', 1994, #204 ) ;
#101 = CC_DESIGN_PERSON_AND_ORGANIZATION_ASSIGNMENT ( #143, #247, ( #232 ) ) ;
#102 = ORIENTED_EDGE ( 'NONE', *, *, #268, .T. ) ;
#103 = ORIENTED_EDGE ( 'NONE', *, *, #88, .T. ) ;
#104 = PERSON_AND_ORGANIZATION_ROLE ( 'creator' ) ;
#105 = CIRCLE ( 'NONE', #282, 3.999999999999989786 ) ;
#106 = VERTEX_POINT ( 'NONE', #309 ) ;
#107 = VERTEX_POINT ( 'NONE', #238 ) ;
#108 = EDGE_LOOP ( 'NONE', ( #124, #31 ) ) ;
#109 = PLANE ( 'NONE',  #135 ) ;
#110 = SECURITY_CLASSIFICATION ( '', '', #127 ) ;
#111 = DIRECTION ( 'NONE',  ( 1.000000000000000000, 0.000000000000000000, -0.000000000000000000 ) ) ;
#112 = DIRECTION ( 'NONE',  ( -1.000000000000000000, 0.000000000000000000, 0.000000000000000000 ) ) ;
#113 = DIRECTION ( 'NONE',  ( 1.000000000000000000, 0.000000000000000000, 0.000000000000000000 ) ) ;
#114 =( GEOMETRIC_REPRESENTATION_CONTEXT ( 3 ) GLOBAL_UNCERTAINTY_ASSIGNED_CONTEXT ( ( #201 ) ) GLOBAL_UNIT_ASSIGNED_CONTEXT ( ( #267, #30, #53 ) ) REPRESENTATION_CONTEXT ( 'NONE', 'WORKASPACE' ) );
#115 = ADVANCED_FACE ( 'NONE', ( #61 ), #162, .T. ) ;
#116 = DIRECTION ( 'NONE',  ( -1.000000000000000000, 0.000000000000000000, 0.000000000000000000 ) ) ;
#117 = CARTESIAN_POINT ( 'NONE',  ( 0.000000000000000000, 0.000000000000000000, 0.000000000000000000 ) ) ;
#118 = CARTESIAN_POINT ( 'NONE',  ( 0.000000000000000000, 0.000000000000000000, 0.000000000000000000 ) ) ;
#119 = EDGE_CURVE ( 'NONE', #57, #178, #255, .T. ) ;
#120 = CARTESIAN_POINT ( 'NONE',  ( 0.000000000000000000, 0.000000000000000000, 13.00000000000000000 ) ) ;
#121 = PERSON_AND_ORGANIZATION_ROLE ( 'creator' ) ;
#122 = ORIENTED_EDGE ( 'NONE', *, *, #69, .T. ) ;
#123 = APPROVAL_ROLE ( '' ) ;
#124 = ORIENTED_EDGE ( 'NONE', *, *, #268, .F. ) ;
#125 = APPROVAL_DATE_TIME ( #35, #166 ) ;
#126 = ORIENTED_EDGE ( 'NONE', *, *, #269, .F. ) ;
#127 = SECURITY_CLASSIFICATION_LEVEL ( 'unclassified' ) ;
#128 = CC_DESIGN_APPROVAL ( #239, ( #110 ) ) ;
#129 = AXIS2_PLACEMENT_3D ( 'NONE', #136, #180, #185 ) ;
#130 = ORIENTED_EDGE ( 'NONE', *, *, #212, .T. ) ;
#131 = VERTEX_POINT ( 'NONE', #44 ) ;
#132 = LINE ( 'NONE', #66, #164 ) ;
#133 = CC_DESIGN_PERSON_AND_ORGANIZATION_ASSIGNMENT ( #300, #195, ( #110 ) ) ;
#134 = CARTESIAN_POINT ( 'NONE',  ( 4.999999999999995559, 6.123233995736761352E-16, 0.000000000000000000 ) ) ;
#135 = AXIS2_PLACEMENT_3D ( 'NONE', #306, #159, #111 ) ;
#136 = CARTESIAN_POINT ( 'NONE',  ( 0.000000000000000000, 0.000000000000000000, 13.00000000000000000 ) ) ;
#137 = DIRECTION ( 'NONE',  ( -1.000000000000000000, 0.000000000000000000, -0.000000000000000000 ) ) ;
#138 = ADVANCED_FACE ( 'NONE', ( #279 ), #14, .T. ) ;
#139 = FACE_OUTER_BOUND ( 'NONE', #34, .T. ) ;
#140 = APPROVAL_PERSON_ORGANIZATION ( #146, #166, #250 ) ;
#141 = CARTESIAN_POINT ( 'NONE',  ( 0.000000000000000000, 0.000000000000000000, 0.000000000000000000 ) ) ;
#142 = EDGE_CURVE ( 'NONE', #106, #246, #84, .T. ) ;
#143 = PERSON_AND_ORGANIZATION ( #168, #82 ) ;
#144 = DATE_AND_TIME ( #50, #307 ) ;
#145 = CIRCLE ( 'NONE', #210, 4.999999999999999112 ) ;
#146 = PERSON_AND_ORGANIZATION ( #168, #82 ) ;
#147 = DIRECTION ( 'NONE',  ( -0.000000000000000000, -0.000000000000000000, -1.000000000000000000 ) ) ;
#148 = ORIENTED_EDGE ( 'NONE', *, *, #212, .F. ) ;
#149 = AXIS2_PLACEMENT_3D ( 'NONE', #229, #24, #40 ) ;
#150 = ORIENTED_EDGE ( 'NONE', *, *, #194, .T. ) ;
#151 = DATE_AND_TIME ( #225, #97 ) ;
#152 = DESIGN_CONTEXT ( 'detailed design', #204, 'design' ) ;
#153 = ORIENTED_EDGE ( 'NONE', *, *, #119, .T. ) ;
#154 = PRODUCT_DEFINITION ( 'NON CONOSCIUTO', '', #60, #152 ) ;
#155 = AXIS2_PLACEMENT_3D ( 'NONE', #271, #28, #289 ) ;
#156 = ORIENTED_EDGE ( 'NONE', *, *, #194, .F. ) ;
#157 = ADVANCED_FACE ( 'NONE', ( #67 ), #284, .F. ) ;
#158 = DIRECTION ( 'NONE',  ( 1.000000000000000000, 0.000000000000000000, 0.000000000000000000 ) ) ;
#159 = DIRECTION ( 'NONE',  ( 0.000000000000000000, 0.000000000000000000, 1.000000000000000000 ) ) ;
#160 = FACE_OUTER_BOUND ( 'NONE', #11, .T. ) ;
#161 = DIRECTION ( 'NONE',  ( -0.000000000000000000, -0.000000000000000000, -1.000000000000000000 ) ) ;
#162 = CYLINDRICAL_SURFACE ( 'NONE', #129, 4.999999999999999112 ) ;
#163 = DIRECTION ( 'NONE',  ( -0.000000000000000000, -0.000000000000000000, -1.000000000000000000 ) ) ;
#164 = VECTOR ( 'NONE', #161, 1000.000000000000000 ) ;
#165 = DIRECTION ( 'NONE',  ( 0.000000000000000000, -0.000000000000000000, 1.000000000000000000 ) ) ;
#166 = APPROVAL ( #218, 'NON SPECIFICATO' ) ;
#167 = DIRECTION ( 'NONE',  ( 1.000000000000000000, 0.000000000000000000, 0.000000000000000000 ) ) ;
#168 = PERSON ( 'NON SPECIFICATO', 'NON SPECIFICATO', 'NON SPECIFICATO', ('NON SPECIFICATO'), ('NON SPECIFICATO'), ('NON SPECIFICATO') ) ;
#169 = CIRCLE ( 'NONE', #198, 4.999999999999995559 ) ;
#170 = CC_DESIGN_PERSON_AND_ORGANIZATION_ASSIGNMENT ( #243, #121, ( #154 ) ) ;
#171 = MECHANICAL_CONTEXT ( 'NONE', #251, 'mechanical' ) ;
#172 = VERTEX_POINT ( 'NONE', #62 ) ;
#173 = ORIENTED_EDGE ( 'NONE', *, *, #142, .F. ) ;
#174 = ORIENTED_EDGE ( 'NONE', *, *, #88, .F. ) ;
#175 = DATE_AND_TIME ( #15, #22 ) ;
#176 = ORIENTED_EDGE ( 'NONE', *, *, #119, .F. ) ;
#177 = PERSON_AND_ORGANIZATION ( #168, #82 ) ;
#178 = VERTEX_POINT ( 'NONE', #182 ) ;
#179 = CIRCLE ( 'NONE', #65, 4.999999999999999112 ) ;
#180 = DIRECTION ( 'NONE',  ( -0.000000000000000000, -0.000000000000000000, 1.000000000000000000 ) ) ;
#181 = DIRECTION ( 'NONE',  ( 0.000000000000000000, 0.000000000000000000, -1.000000000000000000 ) ) ;
#182 = CARTESIAN_POINT ( 'NONE',  ( -4.999999999999995559, 0.000000000000000000, 49.00000000000000711 ) ) ;
#183 = AXIS2_PLACEMENT_3D ( 'NONE', #263, #181, #137 ) ;
#184 = CARTESIAN_POINT ( 'NONE',  ( 0.000000000000000000, 0.000000000000000000, 13.00000000000000000 ) ) ;
#185 = DIRECTION ( 'NONE',  ( 1.000000000000000000, 0.000000000000000000, 0.000000000000000000 ) ) ;
#186 = CARTESIAN_POINT ( 'NONE',  ( -4.999999999999999112, 0.000000000000000000, 13.00000000000000000 ) ) ;
#187 = FACE_OUTER_BOUND ( 'NONE', #108, .T. ) ;
#188 = CC_DESIGN_PERSON_AND_ORGANIZATION_ASSIGNMENT ( #37, #104, ( #60 ) ) ;
#189 = CYLINDRICAL_SURFACE ( 'NONE', #237, 4.999999999999995559 ) ;
#190 = DATE_AND_TIME ( #5, #278 ) ;
#191 = APPROVAL ( #32, 'NON SPECIFICATO' ) ;
#192 = CC_DESIGN_APPROVAL ( #191, ( #154 ) ) ;
#193 = COORDINATED_UNIVERSAL_TIME_OFFSET ( 1, 0, .AHEAD. ) ;
#194 = EDGE_CURVE ( 'NONE', #246, #54, #41, .T. ) ;
#195 = PERSON_AND_ORGANIZATION_ROLE ( 'classification_officer' ) ;
#196 = ADVANCED_FACE ( 'NONE', ( #160 ), #260, .T. ) ;
#197 = COORDINATED_UNIVERSAL_TIME_OFFSET ( 1, 0, .AHEAD. ) ;
#198 = AXIS2_PLACEMENT_3D ( 'NONE', #68, #163, #241 ) ;
#199 = ORIENTED_EDGE ( 'NONE', *, *, #311, .T. ) ;
#200 = PERSON_AND_ORGANIZATION_ROLE ( 'design_supplier' ) ;
#201 = UNCERTAINTY_MEASURE_WITH_UNIT (LENGTH_MEASURE( 1.000000000000000082E-05 ), #267, 'distance_accuracy_value', 'NONE');
#202 = ORIENTED_EDGE ( 'NONE', *, *, #33, .T. ) ;
#203 = CARTESIAN_POINT ( 'NONE',  ( 4.999999999999999112, 6.123233995736765296E-16, 13.00000000000000000 ) ) ;
#204 = APPLICATION_CONTEXT ( 'configuration controlled 3d designs of mechanical parts and assemblies' ) ;
#205 = CIRCLE ( 'NONE', #3, 4.999999999999995559 ) ;
#206 = CARTESIAN_POINT ( 'NONE',  ( -4.999999999999995559, 0.000000000000000000, 49.00000000000000711 ) ) ;
#207 = DIRECTION ( 'NONE',  ( -0.000000000000000000, -0.000000000000000000, 1.000000000000000000 ) ) ;
#208 = LINE ( 'NONE', #310, #273 ) ;
#209 = EDGE_CURVE ( 'NONE', #107, #77, #208, .T. ) ;
#210 = AXIS2_PLACEMENT_3D ( 'NONE', #281, #308, #313 ) ;
#211 = FACE_OUTER_BOUND ( 'NONE', #16, .T. ) ;
#212 = EDGE_CURVE ( 'NONE', #246, #178, #205, .T. ) ;
#213 = ADVANCED_FACE ( 'NONE', ( #211 ), #189, .T. ) ;
#214 = CARTESIAN_POINT ( 'NONE',  ( 4.999999999999995559, 6.123233995736761352E-16, 49.00000000000000711 ) ) ;
#215 = DIRECTION ( 'NONE',  ( 1.000000000000000000, 0.000000000000000000, 0.000000000000000000 ) ) ;
#216 = CIRCLE ( 'NONE', #155, 3.999999999999989786 ) ;
#217 = FACE_OUTER_BOUND ( 'NONE', #13, .T. ) ;
#218 = APPROVAL_STATUS ( 'not_yet_approved' ) ;
#219 = APPROVAL_PERSON_ORGANIZATION ( #78, #239, #10 ) ;
#220 = DIRECTION ( 'NONE',  ( -1.000000000000000000, 0.000000000000000000, 0.000000000000000000 ) ) ;
#221 = CLOSED_SHELL ( 'NONE', ( #234, #258, #115, #157 ) ) ;
#222 = ORIENTED_EDGE ( 'NONE', *, *, #245, .F. ) ;
#223 = COORDINATED_UNIVERSAL_TIME_OFFSET ( 1, 0, .AHEAD. ) ;
#224 = VERTEX_POINT ( 'NONE', #186 ) ;
#225 = CALENDAR_DATE ( 2024, 12, 2 ) ;
#226 = ORIENTED_EDGE ( 'NONE', *, *, #253, .T. ) ;
#227 = PRODUCT_DEFINITION_SHAPE ( 'NONE', 'NONE',  #154 ) ;
#228 = CARTESIAN_POINT ( 'NONE',  ( 0.000000000000000000, 0.000000000000000000, 0.000000000000000000 ) ) ;
#229 = CARTESIAN_POINT ( 'NONE',  ( 0.000000000000000000, 0.000000000000000000, 49.00000000000000711 ) ) ;
#230 = VECTOR ( 'NONE', #63, 1000.000000000000000 ) ;
#231 = DIRECTION ( 'NONE',  ( -1.000000000000000000, 0.000000000000000000, 0.000000000000000000 ) ) ;
#232 = PRODUCT ( '552132', '552132', '', ( #171 ) ) ;
#233 = DIRECTION ( 'NONE',  ( -0.000000000000000000, 0.000000000000000000, -1.000000000000000000 ) ) ;
#234 = ADVANCED_FACE ( 'NONE', ( #1 ), #48, .T. ) ;
#235 = CARTESIAN_POINT ( 'NONE',  ( 0.000000000000000000, 0.000000000000000000, 49.00000000000000711 ) ) ;
#236 = CC_DESIGN_SECURITY_CLASSIFICATION ( #110, ( #60 ) ) ;
#237 = AXIS2_PLACEMENT_3D ( 'NONE', #141, #291, #116 ) ;
#238 = CARTESIAN_POINT ( 'NONE',  ( -5.000000000000000000, 6.123233995736766282E-16, 0.000000000000000000 ) ) ;
#239 = APPROVAL ( #58, 'NON SPECIFICATO' ) ;
#240 = CARTESIAN_POINT ( 'NONE',  ( 0.000000000000000000, 0.000000000000000000, 13.00000000000000000 ) ) ;
#241 = DIRECTION ( 'NONE',  ( 1.000000000000000000, 0.000000000000000000, 0.000000000000000000 ) ) ;
#242 = AXIS2_PLACEMENT_3D ( 'NONE', #43, #207, #158 ) ;
#243 = PERSON_AND_ORGANIZATION ( #168, #82 ) ;
#244 = CARTESIAN_POINT ( 'NONE',  ( 0.000000000000000000, 0.000000000000000000, 0.000000000000000000 ) ) ;
#245 = EDGE_CURVE ( 'NONE', #178, #246, #169, .T. ) ;
#246 = VERTEX_POINT ( 'NONE', #214 ) ;
#247 = PERSON_AND_ORGANIZATION_ROLE ( 'design_owner' ) ;
#248 = CC_DESIGN_APPROVAL ( #166, ( #60 ) ) ;
#249 = ORIENTED_EDGE ( 'NONE', *, *, #29, .T. ) ;
#250 = APPROVAL_ROLE ( '' ) ;
#251 = APPLICATION_CONTEXT ( 'configuration controlled 3d designs of mechanical parts and assemblies' ) ;
#252 = EDGE_LOOP ( 'NONE', ( #249, #103 ) ) ;
#253 = EDGE_CURVE ( 'NONE', #131, #172, #265, .T. ) ;
#254 = CYLINDRICAL_SURFACE ( 'NONE', #99, 4.999999999999995559 ) ;
#255 = LINE ( 'NONE', #206, #93 ) ;
#256 = EDGE_CURVE ( 'NONE', #107, #131, #70, .T. ) ;
#257 = DIRECTION ( 'NONE',  ( 0.7071067811865517916, 8.659560562354985860E-17, -0.7071067811865432429 ) ) ;
#258 = ADVANCED_FACE ( 'NONE', ( #187 ), #71, .F. ) ;
#259 = AXIS2_PLACEMENT_3D ( 'NONE', #120, #51, #92 ) ;
#260 = PLANE ( 'NONE',  #47 ) ;
#261 = CLOSED_SHELL ( 'NONE', ( #138, #2, #196, #26, #213, #293 ) ) ;
#262 = CARTESIAN_POINT ( 'NONE',  ( -4.999999999999999112, 6.123233995736765296E-16, 13.00000000000000000 ) ) ;
#263 = CARTESIAN_POINT ( 'NONE',  ( 0.000000000000000000, 4.999999999999999112, 13.00000000000000000 ) ) ;
#264 = LOCAL_TIME ( 15, 28, 43.00000000000000000, #223 ) ;
#265 = LINE ( 'NONE', #27, #42 ) ;
#266 = CARTESIAN_POINT ( 'NONE',  ( 0.000000000000000000, 0.000000000000000000, 0.000000000000000000 ) ) ;
#267 =( LENGTH_UNIT ( ) NAMED_UNIT ( * ) SI_UNIT ( .MILLI., .METRE. ) );
#268 = EDGE_CURVE ( 'NONE', #131, #107, #64, .T. ) ;
#269 = EDGE_CURVE ( 'NONE', #106, #57, #216, .T. ) ;
#270 = EDGE_LOOP ( 'NONE', ( #102, #39, #55, #9 ) ) ;
#271 = CARTESIAN_POINT ( 'NONE',  ( 0.000000000000000000, 0.000000000000000000, 50.00000000000000000 ) ) ;
#272 = ORIENTED_EDGE ( 'NONE', *, *, #311, .F. ) ;
#273 = VECTOR ( 'NONE', #86, 1000.000000000000000 ) ;
#274 = ORIENTED_EDGE ( 'NONE', *, *, #46, .F. ) ;
#275 = ORIENTED_EDGE ( 'NONE', *, *, #209, .F. ) ;
#276 = SHAPE_DEFINITION_REPRESENTATION ( #227, #302 ) ;
#277 = FACE_OUTER_BOUND ( 'NONE', #299, .T. ) ;
#278 = LOCAL_TIME ( 15, 28, 43.00000000000000000, #193 ) ;
#279 = FACE_OUTER_BOUND ( 'NONE', #79, .T. ) ;
#280 = DIRECTION ( 'NONE',  ( -0.000000000000000000, -0.000000000000000000, -1.000000000000000000 ) ) ;
#281 = CARTESIAN_POINT ( 'NONE',  ( 0.000000000000000000, 0.000000000000000000, 13.00000000000000000 ) ) ;
#282 = AXIS2_PLACEMENT_3D ( 'NONE', #89, #81, #19 ) ;
#283 = DIRECTION ( 'NONE',  ( -0.000000000000000000, -0.000000000000000000, -1.000000000000000000 ) ) ;
#284 = PLANE ( 'NONE',  #183 ) ;
#285 = MANIFOLD_SOLID_BREP ( 'Tagliente', #221 ) ;
#286 = DIRECTION ( 'NONE',  ( 1.000000000000000000, 0.000000000000000000, 0.000000000000000000 ) ) ;
#287 = AXIS2_PLACEMENT_3D ( 'NONE', #118, #165, #215 ) ;
#288 = DIRECTION ( 'NONE',  ( 1.000000000000000000, 0.000000000000000000, 0.000000000000000000 ) ) ;
#289 = DIRECTION ( 'NONE',  ( 1.000000000000000000, 0.000000000000000000, 0.000000000000000000 ) ) ;
#290 = MANIFOLD_SOLID_BREP ( 'SmussoGambo', #261 ) ;
#291 = DIRECTION ( 'NONE',  ( -0.000000000000000000, -0.000000000000000000, -1.000000000000000000 ) ) ;
#292 = APPLICATION_PROTOCOL_DEFINITION ( 'international standard', 'config_control_design', 1994, #251 ) ;
#293 = ADVANCED_FACE ( 'NONE', ( #217 ), #76, .T. ) ;
#294 = VECTOR ( 'NONE', #257, 1000.000000000000000 ) ;
#295 = ORIENTED_EDGE ( 'NONE', *, *, #269, .T. ) ;
#296 = CARTESIAN_POINT ( 'NONE',  ( 0.000000000000000000, 0.000000000000000000, 49.00000000000000711 ) ) ;
#297 = ORIENTED_EDGE ( 'NONE', *, *, #142, .T. ) ;
#298 = APPROVAL_DATE_TIME ( #175, #239 ) ;
#299 = EDGE_LOOP ( 'NONE', ( #303, #150, #274, #74 ) ) ;
#300 = PERSON_AND_ORGANIZATION ( #168, #82 ) ;
#301 = AXIS2_PLACEMENT_3D ( 'NONE', #266, #49, #7 ) ;
#302 = ADVANCED_BREP_SHAPE_REPRESENTATION ( '552132', ( #285, #290, #6 ), #114 ) ;
#303 = ORIENTED_EDGE ( 'NONE', *, *, #245, .T. ) ;
#304 = COORDINATED_UNIVERSAL_TIME_OFFSET ( 1, 0, .AHEAD. ) ;
#305 = EDGE_LOOP ( 'NONE', ( #275, #36, #226, #174 ) ) ;
#306 = CARTESIAN_POINT ( 'NONE',  ( 0.000000000000000000, -4.776122516674678667E-15, 50.00000000000000000 ) ) ;
#307 = LOCAL_TIME ( 15, 28, 43.00000000000000000, #72 ) ;
#308 = DIRECTION ( 'NONE',  ( -0.000000000000000000, -0.000000000000000000, 1.000000000000000000 ) ) ;
#309 = CARTESIAN_POINT ( 'NONE',  ( 3.999999999999989786, 5.510910596163080681E-16, 50.00000000000000000 ) ) ;
#310 = CARTESIAN_POINT ( 'NONE',  ( -4.999999999999999112, 6.123233995736765296E-16, 13.00000000000000000 ) ) ;
#311 = EDGE_CURVE ( 'NONE', #54, #224, #312, .T. ) ;
#312 = CIRCLE ( 'NONE', #259, 4.999999999999999112 ) ;
#313 = DIRECTION ( 'NONE',  ( 1.000000000000000000, 0.000000000000000000, 0.000000000000000000 ) ) ;
ENDSEC;
END-ISO-10303-21;
