ISO-10303-21;
HEADER;
FILE_DESCRIPTION (( 'STEP AP203' ),
    '1' );
FILE_NAME ('552133.step',
    '2024-02-12T14:28:43',
    ( '' ),
    ( '' ),
    'SwSTEP 2.0',
    'SolidWorks 2019',
    '' );
FILE_SCHEMA (( 'CONFIG_CONTROL_DESIGN' ));
ENDSEC;

DATA;
#1 = DIRECTION ( 'NONE',  ( 1.000000000000000000, 0.000000000000000000, 0.000000000000000000 ) ) ;
#2 = AXIS2_PLACEMENT_3D ( 'NONE', #110, #112, #235 ) ;
#3 = APPROVAL_DATE_TIME ( #164, #203 ) ;
#4 = CARTESIAN_POINT ( 'NONE',  ( -5.999999999999999112, 7.347880794884118750E-16, 14.00000000000000000 ) ) ;
#5 = CARTESIAN_POINT ( 'NONE',  ( 6.000000000000000000, 0.000000000000000000, 0.000000000000000000 ) ) ;
#6 = CARTESIAN_POINT ( 'NONE',  ( 0.000000000000000000, 0.000000000000000000, 14.00000000000000000 ) ) ;
#7 = CC_DESIGN_PERSON_AND_ORGANIZATION_ASSIGNMENT ( #270, #200, ( #13 ) ) ;
#8 = CIRCLE ( 'NONE', #118, 5.999999999999996447 ) ;
#9 = SECURITY_CLASSIFICATION ( '', '', #21 ) ;
#10 = CARTESIAN_POINT ( 'NONE',  ( 0.000000000000000000, 0.000000000000000000, 0.000000000000000000 ) ) ;
#11 = VECTOR ( 'NONE', #146, 1000.000000000000000 ) ;
#12 = EDGE_CURVE ( 'NONE', #264, #141, #309, .T. ) ;
#13 = PRODUCT_DEFINITION_FORMATION_WITH_SPECIFIED_SOURCE ( 'TUTTO', '', #275, .NOT_KNOWN. ) ;
#14 = DIRECTION ( 'NONE',  ( -0.000000000000000000, -0.000000000000000000, 1.000000000000000000 ) ) ;
#15 = EDGE_LOOP ( 'NONE', ( #304, #243, #260, #37 ) ) ;
#16 = ORIENTED_EDGE ( 'NONE', *, *, #79, .F. ) ;
#17 = ORIENTED_EDGE ( 'NONE', *, *, #182, .F. ) ;
#18 = CARTESIAN_POINT ( 'NONE',  ( 0.000000000000000000, 0.000000000000000000, 61.79999999999998295 ) ) ;
#19 = DIRECTION ( 'NONE',  ( 1.000000000000000000, 0.000000000000000000, 0.000000000000000000 ) ) ;
#20 = VECTOR ( 'NONE', #274, 1000.000000000000000 ) ;
#21 = SECURITY_CLASSIFICATION_LEVEL ( 'unclassified' ) ;
#22 = FACE_OUTER_BOUND ( 'NONE', #308, .T. ) ;
#23 = EDGE_CURVE ( 'NONE', #212, #116, #123, .T. ) ;
#24 = CARTESIAN_POINT ( 'NONE',  ( 4.799999999999991829, 6.613092715395698592E-16, 63.00000000000000000 ) ) ;
#25 = CIRCLE ( 'NONE', #267, 6.000000000000000000 ) ;
#26 = COORDINATED_UNIVERSAL_TIME_OFFSET ( 1, 0, .AHEAD. ) ;
#27 = CARTESIAN_POINT ( 'NONE',  ( 0.000000000000000000, 0.000000000000000000, 0.000000000000000000 ) ) ;
#28 = DIRECTION ( 'NONE',  ( 0.000000000000000000, -0.000000000000000000, 1.000000000000000000 ) ) ;
#29 = CARTESIAN_POINT ( 'NONE',  ( 0.000000000000000000, 0.000000000000000000, 61.79999999999998295 ) ) ;
#30 = AXIS2_PLACEMENT_3D ( 'NONE', #63, #184, #162 ) ;
#31 = LINE ( 'NONE', #4, #272 ) ;
#32 = CARTESIAN_POINT ( 'NONE',  ( 0.000000000000000000, 6.000000000000000000, 14.00000000000000000 ) ) ;
#33 = EDGE_LOOP ( 'NONE', ( #160, #284 ) ) ;
#34 = DATE_AND_TIME ( #186, #72 ) ;
#35 = ORIENTED_EDGE ( 'NONE', *, *, #172, .F. ) ;
#36 =( NAMED_UNIT ( * ) PLANE_ANGLE_UNIT ( ) SI_UNIT ( $, .RADIAN. ) );
#37 = ORIENTED_EDGE ( 'NONE', *, *, #247, .F. ) ;
#38 = AXIS2_PLACEMENT_3D ( 'NONE', #27, #101, #52 ) ;
#39 = FACE_OUTER_BOUND ( 'NONE', #287, .T. ) ;
#40 = ADVANCED_FACE ( 'NONE', ( #219 ), #192, .T. ) ;
#41 = PERSON_AND_ORGANIZATION ( #132, #87 ) ;
#42 = LINE ( 'NONE', #246, #236 ) ;
#43 = VECTOR ( 'NONE', #239, 1000.000000000000000 ) ;
#44 = LINE ( 'NONE', #268, #11 ) ;
#45 = PERSON_AND_ORGANIZATION ( #132, #87 ) ;
#46 = PERSON_AND_ORGANIZATION ( #132, #87 ) ;
#47 = CARTESIAN_POINT ( 'NONE',  ( 0.000000000000000000, 0.000000000000000000, 14.00000000000000000 ) ) ;
#48 = CIRCLE ( 'NONE', #2, 4.799999999999991829 ) ;
#49 = AXIS2_PLACEMENT_3D ( 'NONE', #10, #28, #75 ) ;
#50 = CARTESIAN_POINT ( 'NONE',  ( -4.799999999999991829, 0.000000000000000000, 63.00000000000000000 ) ) ;
#51 = DIRECTION ( 'NONE',  ( 1.000000000000000000, 0.000000000000000000, 0.000000000000000000 ) ) ;
#52 = DIRECTION ( 'NONE',  ( -1.000000000000000000, 0.000000000000000000, 0.000000000000000000 ) ) ;
#53 = CYLINDRICAL_SURFACE ( 'NONE', #140, 5.999999999999996447 ) ;
#54 = ADVANCED_FACE ( 'NONE', ( #22 ), #196, .T. ) ;
#55 = ORIENTED_EDGE ( 'NONE', *, *, #12, .T. ) ;
#56 = DESIGN_CONTEXT ( 'detailed design', #90, 'design' ) ;
#57 = VERTEX_POINT ( 'NONE', #166 ) ;
#58 = AXIS2_PLACEMENT_3D ( 'NONE', #145, #291, #1 ) ;
#59 = ADVANCED_FACE ( 'NONE', ( #39 ), #109, .T. ) ;
#60 = CARTESIAN_POINT ( 'NONE',  ( -5.999999999999998224, 7.347880794884118750E-16, 14.00000000000000000 ) ) ;
#61 = LINE ( 'NONE', #261, #43 ) ;
#62 = ORIENTED_EDGE ( 'NONE', *, *, #311, .F. ) ;
#63 = CARTESIAN_POINT ( 'NONE',  ( 0.000000000000000000, 0.000000000000000000, 0.000000000000000000 ) ) ;
#64 = AXIS2_PLACEMENT_3D ( 'NONE', #47, #249, #135 ) ;
#65 = ORIENTED_EDGE ( 'NONE', *, *, #182, .T. ) ;
#66 = EDGE_CURVE ( 'NONE', #159, #242, #42, .T. ) ;
#67 = COORDINATED_UNIVERSAL_TIME_OFFSET ( 1, 0, .AHEAD. ) ;
#68 = CARTESIAN_POINT ( 'NONE',  ( 0.000000000000000000, 0.000000000000000000, 14.00000000000000000 ) ) ;
#69 = APPROVAL_ROLE ( '' ) ;
#70 = EDGE_CURVE ( 'NONE', #242, #113, #44, .T. ) ;
#71 = ORIENTED_EDGE ( 'NONE', *, *, #12, .F. ) ;
#72 = LOCAL_TIME ( 15, 28, 43.00000000000000000, #84 ) ;
#73 = PERSON_AND_ORGANIZATION_ROLE ( 'classification_officer' ) ;
#74 = CARTESIAN_POINT ( 'NONE',  ( 5.999999999999996447, 7.347880794884115792E-16, 0.000000000000000000 ) ) ;
#75 = DIRECTION ( 'NONE',  ( 1.000000000000000000, 0.000000000000000000, 0.000000000000000000 ) ) ;
#76 = PLANE ( 'NONE',  #49 ) ;
#77 = DIRECTION ( 'NONE',  ( 0.000000000000000000, 0.000000000000000000, 1.000000000000000000 ) ) ;
#78 = FACE_OUTER_BOUND ( 'NONE', #211, .T. ) ;
#79 = EDGE_CURVE ( 'NONE', #262, #242, #137, .T. ) ;
#80 = CIRCLE ( 'NONE', #64, 6.000000000000000000 ) ;
#81 = PERSON_AND_ORGANIZATION ( #132, #87 ) ;
#82 = CARTESIAN_POINT ( 'NONE',  ( 0.000000000000000000, 0.000000000000000000, 0.000000000000000000 ) ) ;
#83 = VERTEX_POINT ( 'NONE', #24 ) ;
#84 = COORDINATED_UNIVERSAL_TIME_OFFSET ( 1, 0, .AHEAD. ) ;
#85 = MANIFOLD_SOLID_BREP ( 'SmussoGambo', #92 ) ;
#86 = ORIENTED_EDGE ( 'NONE', *, *, #70, .F. ) ;
#87 = ORGANIZATION ( 'NON SPECIFICATO', 'NON SPECIFICATO', '' ) ;
#88 = APPLICATION_PROTOCOL_DEFINITION ( 'international standard', 'config_control_design', 1994, #90 ) ;
#89 = EDGE_LOOP ( 'NONE', ( #214, #285 ) ) ;
#90 = APPLICATION_CONTEXT ( 'configuration controlled 3d designs of mechanical parts and assemblies' ) ;
#91 = ADVANCED_FACE ( 'NONE', ( #124 ), #204, .T. ) ;
#92 = CLOSED_SHELL ( 'NONE', ( #40, #208, #102, #156, #126, #59 ) ) ;
#93 = DIRECTION ( 'NONE',  ( -0.000000000000000000, -0.000000000000000000, 1.000000000000000000 ) ) ;
#94 = LOCAL_TIME ( 15, 28, 43.00000000000000000, #228 ) ;
#95 = APPROVAL_ROLE ( '' ) ;
#96 = DIRECTION ( 'NONE',  ( 1.000000000000000000, 0.000000000000000000, 0.000000000000000000 ) ) ;
#97 = DATE_AND_TIME ( #120, #294 ) ;
#98 = CARTESIAN_POINT ( 'NONE',  ( 0.000000000000000000, 0.000000000000000000, 61.79999999999998295 ) ) ;
#99 = PERSON_AND_ORGANIZATION ( #132, #87 ) ;
#100 = DIRECTION ( 'NONE',  ( -0.000000000000000000, 0.000000000000000000, -1.000000000000000000 ) ) ;
#101 = DIRECTION ( 'NONE',  ( -0.000000000000000000, -0.000000000000000000, -1.000000000000000000 ) ) ;
#102 = ADVANCED_FACE ( 'NONE', ( #127 ), #299, .T. ) ;
#103 = FACE_OUTER_BOUND ( 'NONE', #225, .T. ) ;
#104 = AXIS2_PLACEMENT_3D ( 'NONE', #68, #312, #19 ) ;
#105 = CARTESIAN_POINT ( 'NONE',  ( 5.999999999999998224, 0.000000000000000000, 14.00000000000000000 ) ) ;
#106 = ADVANCED_FACE ( 'NONE', ( #154 ), #76, .F. ) ;
#107 = DIRECTION ( 'NONE',  ( -0.000000000000000000, -0.000000000000000000, 1.000000000000000000 ) ) ;
#108 = CARTESIAN_POINT ( 'NONE',  ( 5.999999999999996447, 7.347880794884115792E-16, 61.79999999999998295 ) ) ;
#109 = CONICAL_SURFACE ( 'NONE', #244, 5.999999999999996447, 0.7853981633974418397 ) ;
#110 = CARTESIAN_POINT ( 'NONE',  ( 0.000000000000000000, 0.000000000000000000, 63.00000000000000000 ) ) ;
#111 = ORIENTED_EDGE ( 'NONE', *, *, #311, .T. ) ;
#112 = DIRECTION ( 'NONE',  ( 0.000000000000000000, 0.000000000000000000, 1.000000000000000000 ) ) ;
#113 = VERTEX_POINT ( 'NONE', #298 ) ;
#114 = AXIS2_PLACEMENT_3D ( 'NONE', #250, #77, #232 ) ;
#115 = EDGE_CURVE ( 'NONE', #83, #262, #175, .T. ) ;
#116 = VERTEX_POINT ( 'NONE', #5 ) ;
#117 = ORIENTED_EDGE ( 'NONE', *, *, #273, .T. ) ;
#118 = AXIS2_PLACEMENT_3D ( 'NONE', #29, #276, #229 ) ;
#119 = ORIENTED_EDGE ( 'NONE', *, *, #254, .F. ) ;
#120 = CALENDAR_DATE ( 2024, 12, 2 ) ;
#121 = EDGE_CURVE ( 'NONE', #242, #262, #8, .T. ) ;
#122 = EDGE_LOOP ( 'NONE', ( #62, #142, #139, #256 ) ) ;
#123 = CIRCLE ( 'NONE', #207, 6.000000000000000000 ) ;
#124 = FACE_OUTER_BOUND ( 'NONE', #185, .T. ) ;
#125 = APPROVAL_DATE_TIME ( #97, #234 ) ;
#126 = ADVANCED_FACE ( 'NONE', ( #206 ), #53, .T. ) ;
#127 = FACE_OUTER_BOUND ( 'NONE', #33, .T. ) ;
#128 = DIRECTION ( 'NONE',  ( -1.000000000000000000, 0.000000000000000000, 0.000000000000000000 ) ) ;
#129 = APPLICATION_CONTEXT ( 'configuration controlled 3d designs of mechanical parts and assemblies' ) ;
#130 = DIRECTION ( 'NONE',  ( 1.000000000000000000, 0.000000000000000000, -0.000000000000000000 ) ) ;
#131 = EDGE_CURVE ( 'NONE', #113, #57, #25, .T. ) ;
#132 = PERSON ( 'NON SPECIFICATO', 'NON SPECIFICATO', 'NON SPECIFICATO', ('NON SPECIFICATO'), ('NON SPECIFICATO'), ('NON SPECIFICATO') ) ;
#133 = DIRECTION ( 'NONE',  ( -0.000000000000000000, -0.000000000000000000, 1.000000000000000000 ) ) ;
#134 = CARTESIAN_POINT ( 'NONE',  ( 5.999999999999996447, 7.347880794884113820E-16, 61.79999999999998295 ) ) ;
#135 = DIRECTION ( 'NONE',  ( -1.000000000000000000, 0.000000000000000000, 0.000000000000000000 ) ) ;
#136 = ORIENTED_EDGE ( 'NONE', *, *, #189, .T. ) ;
#137 = CIRCLE ( 'NONE', #174, 5.999999999999996447 ) ;
#138 = APPROVAL_DATE_TIME ( #34, #257 ) ;
#139 = ORIENTED_EDGE ( 'NONE', *, *, #121, .F. ) ;
#140 = AXIS2_PLACEMENT_3D ( 'NONE', #153, #277, #177 ) ;
#141 = VERTEX_POINT ( 'NONE', #105 ) ;
#142 = ORIENTED_EDGE ( 'NONE', *, *, #115, .T. ) ;
#143 = AXIS2_PLACEMENT_3D ( 'NONE', #18, #295, #217 ) ;
#144 = CC_DESIGN_APPROVAL ( #234, ( #9 ) ) ;
#145 = CARTESIAN_POINT ( 'NONE',  ( 0.000000000000000000, 0.000000000000000000, 14.00000000000000000 ) ) ;
#146 = DIRECTION ( 'NONE',  ( -0.000000000000000000, -0.000000000000000000, -1.000000000000000000 ) ) ;
#147 = DIRECTION ( 'NONE',  ( -0.000000000000000000, -0.000000000000000000, -1.000000000000000000 ) ) ;
#148 = DATE_TIME_ROLE ( 'classification_date' ) ;
#149 = CLOSED_SHELL ( 'NONE', ( #91, #106, #54, #213 ) ) ;
#150 = DIRECTION ( 'NONE',  ( 0.000000000000000000, 0.000000000000000000, -1.000000000000000000 ) ) ;
#151 = LOCAL_TIME ( 15, 28, 43.00000000000000000, #67 ) ;
#152 = DIRECTION ( 'NONE',  ( -0.000000000000000000, -0.000000000000000000, 1.000000000000000000 ) ) ;
#153 = CARTESIAN_POINT ( 'NONE',  ( 0.000000000000000000, 0.000000000000000000, 0.000000000000000000 ) ) ;
#154 = FACE_OUTER_BOUND ( 'NONE', #89, .T. ) ;
#155 = LINE ( 'NONE', #74, #289 ) ;
#156 = ADVANCED_FACE ( 'NONE', ( #103 ), #205, .T. ) ;
#157 = ORIENTED_EDGE ( 'NONE', *, *, #131, .F. ) ;
#158 = PERSON_AND_ORGANIZATION_ROLE ( 'design_owner' ) ;
#159 = VERTEX_POINT ( 'NONE', #50 ) ;
#160 = ORIENTED_EDGE ( 'NONE', *, *, #131, .T. ) ;
#161 = PRODUCT_DEFINITION ( 'NON CONOSCIUTO', '', #13, #56 ) ;
#162 = DIRECTION ( 'NONE',  ( 1.000000000000000000, 0.000000000000000000, 0.000000000000000000 ) ) ;
#163 = CARTESIAN_POINT ( 'NONE',  ( 0.000000000000000000, 0.000000000000000000, 61.79999999999998295 ) ) ;
#164 = DATE_AND_TIME ( #313, #94 ) ;
#165 = CALENDAR_DATE ( 2024, 12, 2 ) ;
#166 = CARTESIAN_POINT ( 'NONE',  ( 6.000000000000000888, 7.347880794884120722E-16, 14.00000000000000000 ) ) ;
#167 = CIRCLE ( 'NONE', #231, 6.000000000000000000 ) ;
#168 = CC_DESIGN_SECURITY_CLASSIFICATION ( #9, ( #13 ) ) ;
#169 = DIRECTION ( 'NONE',  ( -0.7071067811865430208, 0.000000000000000000, -0.7071067811865521247 ) ) ;
#170 = DIRECTION ( 'NONE',  ( 1.000000000000000000, 0.000000000000000000, 0.000000000000000000 ) ) ;
#171 = APPROVAL_STATUS ( 'not_yet_approved' ) ;
#172 = EDGE_CURVE ( 'NONE', #212, #264, #31, .T. ) ;
#173 = DIRECTION ( 'NONE',  ( -0.000000000000000000, -0.000000000000000000, -1.000000000000000000 ) ) ;
#174 = AXIS2_PLACEMENT_3D ( 'NONE', #98, #199, #170 ) ;
#175 = LINE ( 'NONE', #134, #20 ) ;
#176 = CC_DESIGN_APPROVAL ( #203, ( #13 ) ) ;
#177 = DIRECTION ( 'NONE',  ( -1.000000000000000000, 0.000000000000000000, 0.000000000000000000 ) ) ;
#178 = PRODUCT_DEFINITION_SHAPE ( 'NONE', 'NONE',  #161 ) ;
#179 = FACE_OUTER_BOUND ( 'NONE', #240, .T. ) ;
#180 = DIRECTION ( 'NONE',  ( -1.000000000000000000, 0.000000000000000000, -0.000000000000000000 ) ) ;
#181 = CIRCLE ( 'NONE', #114, 4.799999999999991829 ) ;
#182 = EDGE_CURVE ( 'NONE', #141, #264, #187, .T. ) ;
#183 = UNCERTAINTY_MEASURE_WITH_UNIT (LENGTH_MEASURE( 1.000000000000000082E-05 ), #281, 'distance_accuracy_value', 'NONE');
#184 = DIRECTION ( 'NONE',  ( 0.000000000000000000, 0.000000000000000000, 1.000000000000000000 ) ) ;
#185 = EDGE_LOOP ( 'NONE', ( #117, #282, #17, #119 ) ) ;
#186 = CALENDAR_DATE ( 2024, 12, 2 ) ;
#187 = CIRCLE ( 'NONE', #288, 5.999999999999998224 ) ;
#188 = LOCAL_TIME ( 15, 28, 43.00000000000000000, #220 ) ;
#189 = EDGE_CURVE ( 'NONE', #159, #83, #181, .T. ) ;
#190 =( NAMED_UNIT ( * ) SI_UNIT ( $, .STERADIAN. ) SOLID_ANGLE_UNIT ( ) );
#191 = ORIENTED_EDGE ( 'NONE', *, *, #115, .F. ) ;
#192 = CONICAL_SURFACE ( 'NONE', #143, 5.999999999999996447, 0.7853981633974418397 ) ;
#193 = APPROVAL_PERSON_ORGANIZATION ( #197, #203, #69 ) ;
#194 = PERSON_AND_ORGANIZATION_ROLE ( 'design_supplier' ) ;
#195 = MANIFOLD_SOLID_BREP ( 'Tagliente', #149 ) ;
#196 = CYLINDRICAL_SURFACE ( 'NONE', #58, 5.999999999999999112 ) ;
#197 = PERSON_AND_ORGANIZATION ( #132, #87 ) ;
#198 = CC_DESIGN_DATE_AND_TIME_ASSIGNMENT ( #310, #148, ( #9 ) ) ;
#199 = DIRECTION ( 'NONE',  ( -0.000000000000000000, -0.000000000000000000, -1.000000000000000000 ) ) ;
#200 = PERSON_AND_ORGANIZATION_ROLE ( 'creator' ) ;
#201 = DIRECTION ( 'NONE',  ( -1.000000000000000000, 0.000000000000000000, 0.000000000000000000 ) ) ;
#202 = CARTESIAN_POINT ( 'NONE',  ( 0.000000000000000000, 5.999999999999998224, 14.00000000000000000 ) ) ;
#203 = APPROVAL ( #292, 'NON SPECIFICATO' ) ;
#204 = CYLINDRICAL_SURFACE ( 'NONE', #218, 5.999999999999999112 ) ;
#205 = PLANE ( 'NONE',  #226 ) ;
#206 = FACE_OUTER_BOUND ( 'NONE', #15, .T. ) ;
#207 = AXIS2_PLACEMENT_3D ( 'NONE', #269, #93, #96 ) ;
#208 = ADVANCED_FACE ( 'NONE', ( #179 ), #296, .T. ) ;
#209 = APPROVAL_PERSON_ORGANIZATION ( #45, #234, #95 ) ;
#210 = MECHANICAL_CONTEXT ( 'NONE', #129, 'mechanical' ) ;
#211 = EDGE_LOOP ( 'NONE', ( #65, #55 ) ) ;
#212 = VERTEX_POINT ( 'NONE', #233 ) ;
#213 = ADVANCED_FACE ( 'NONE', ( #78 ), #280, .F. ) ;
#214 = ORIENTED_EDGE ( 'NONE', *, *, #273, .F. ) ;
#215 = APPROVAL_PERSON_ORGANIZATION ( #81, #257, #306 ) ;
#216 = ORIENTED_EDGE ( 'NONE', *, *, #189, .F. ) ;
#217 = DIRECTION ( 'NONE',  ( -1.000000000000000000, 0.000000000000000000, 0.000000000000000000 ) ) ;
#218 = AXIS2_PLACEMENT_3D ( 'NONE', #6, #107, #51 ) ;
#219 = FACE_OUTER_BOUND ( 'NONE', #122, .T. ) ;
#220 = COORDINATED_UNIVERSAL_TIME_OFFSET ( 1, 0, .AHEAD. ) ;
#221 = ADVANCED_BREP_SHAPE_REPRESENTATION ( '552133', ( #195, #85, #30 ), #259 ) ;
#222 = DATE_TIME_ROLE ( 'creation_date' ) ;
#223 = ORIENTED_EDGE ( 'NONE', *, *, #66, .T. ) ;
#224 = CALENDAR_DATE ( 2024, 12, 2 ) ;
#225 = EDGE_LOOP ( 'NONE', ( #136, #111 ) ) ;
#226 = AXIS2_PLACEMENT_3D ( 'NONE', #230, #253, #130 ) ;
#227 = ORIENTED_EDGE ( 'NONE', *, *, #238, .T. ) ;
#228 = COORDINATED_UNIVERSAL_TIME_OFFSET ( 1, 0, .AHEAD. ) ;
#229 = DIRECTION ( 'NONE',  ( 1.000000000000000000, 0.000000000000000000, 0.000000000000000000 ) ) ;
#230 = CARTESIAN_POINT ( 'NONE',  ( 0.000000000000000000, -6.123233995736766085E-15, 63.00000000000000000 ) ) ;
#231 = AXIS2_PLACEMENT_3D ( 'NONE', #82, #14, #303 ) ;
#232 = DIRECTION ( 'NONE',  ( 1.000000000000000000, 0.000000000000000000, 0.000000000000000000 ) ) ;
#233 = CARTESIAN_POINT ( 'NONE',  ( -6.000000000000000888, 7.347880794884120722E-16, 0.000000000000000000 ) ) ;
#234 = APPROVAL ( #171, 'NON SPECIFICATO' ) ;
#235 = DIRECTION ( 'NONE',  ( 1.000000000000000000, 0.000000000000000000, 0.000000000000000000 ) ) ;
#236 = VECTOR ( 'NONE', #169, 1000.000000000000000 ) ;
#237 = CC_DESIGN_APPROVAL ( #257, ( #161 ) ) ;
#238 = EDGE_CURVE ( 'NONE', #262, #57, #155, .T. ) ;
#239 = DIRECTION ( 'NONE',  ( -0.000000000000000000, -0.000000000000000000, 1.000000000000000000 ) ) ;
#240 = EDGE_LOOP ( 'NONE', ( #248, #227, #157, #86 ) ) ;
#241 = ORIENTED_EDGE ( 'NONE', *, *, #23, .T. ) ;
#242 = VERTEX_POINT ( 'NONE', #255 ) ;
#243 = ORIENTED_EDGE ( 'NONE', *, *, #79, .T. ) ;
#244 = AXIS2_PLACEMENT_3D ( 'NONE', #163, #147, #266 ) ;
#245 = DATE_AND_TIME ( #165, #151 ) ;
#246 = CARTESIAN_POINT ( 'NONE',  ( -5.999999999999996447, 0.000000000000000000, 61.79999999999998295 ) ) ;
#247 = EDGE_CURVE ( 'NONE', #57, #113, #80, .T. ) ;
#248 = ORIENTED_EDGE ( 'NONE', *, *, #121, .T. ) ;
#249 = DIRECTION ( 'NONE',  ( -0.000000000000000000, -0.000000000000000000, -1.000000000000000000 ) ) ;
#250 = CARTESIAN_POINT ( 'NONE',  ( 0.000000000000000000, 0.000000000000000000, 63.00000000000000000 ) ) ;
#251 = PRODUCT_RELATED_PRODUCT_CATEGORY ( 'detail', '', ( #275 ) ) ;
#252 = DIRECTION ( 'NONE',  ( -0.000000000000000000, -0.000000000000000000, -1.000000000000000000 ) ) ;
#253 = DIRECTION ( 'NONE',  ( 0.000000000000000000, 0.000000000000000000, 1.000000000000000000 ) ) ;
#254 = EDGE_CURVE ( 'NONE', #116, #141, #61, .T. ) ;
#255 = CARTESIAN_POINT ( 'NONE',  ( -5.999999999999996447, 0.000000000000000000, 61.79999999999998295 ) ) ;
#256 = ORIENTED_EDGE ( 'NONE', *, *, #66, .F. ) ;
#257 = APPROVAL ( #258, 'NON SPECIFICATO' ) ;
#258 = APPROVAL_STATUS ( 'not_yet_approved' ) ;
#259 =( GEOMETRIC_REPRESENTATION_CONTEXT ( 3 ) GLOBAL_UNCERTAINTY_ASSIGNED_CONTEXT ( ( #183 ) ) GLOBAL_UNIT_ASSIGNED_CONTEXT ( ( #281, #36, #190 ) ) REPRESENTATION_CONTEXT ( 'NONE', 'WORKASPACE' ) );
#260 = ORIENTED_EDGE ( 'NONE', *, *, #70, .T. ) ;
#261 = CARTESIAN_POINT ( 'NONE',  ( 5.999999999999999112, 0.000000000000000000, 14.00000000000000000 ) ) ;
#262 = VERTEX_POINT ( 'NONE', #108 ) ;
#263 = APPLICATION_PROTOCOL_DEFINITION ( 'international standard', 'config_control_design', 1994, #129 ) ;
#264 = VERTEX_POINT ( 'NONE', #60 ) ;
#265 = CC_DESIGN_PERSON_AND_ORGANIZATION_ASSIGNMENT ( #99, #194, ( #13 ) ) ;
#266 = DIRECTION ( 'NONE',  ( -1.000000000000000000, 0.000000000000000000, 0.000000000000000000 ) ) ;
#267 = AXIS2_PLACEMENT_3D ( 'NONE', #271, #252, #128 ) ;
#268 = CARTESIAN_POINT ( 'NONE',  ( -5.999999999999996447, 0.000000000000000000, 0.000000000000000000 ) ) ;
#269 = CARTESIAN_POINT ( 'NONE',  ( 0.000000000000000000, 0.000000000000000000, 0.000000000000000000 ) ) ;
#270 = PERSON_AND_ORGANIZATION ( #132, #87 ) ;
#271 = CARTESIAN_POINT ( 'NONE',  ( 0.000000000000000000, 0.000000000000000000, 14.00000000000000000 ) ) ;
#272 = VECTOR ( 'NONE', #133, 1000.000000000000000 ) ;
#273 = EDGE_CURVE ( 'NONE', #116, #212, #167, .T. ) ;
#274 = DIRECTION ( 'NONE',  ( 0.7071067811865430208, 8.659560562354877391E-17, -0.7071067811865521247 ) ) ;
#275 = PRODUCT ( '552133', '552133', '', ( #210 ) ) ;
#276 = DIRECTION ( 'NONE',  ( -0.000000000000000000, -0.000000000000000000, -1.000000000000000000 ) ) ;
#277 = DIRECTION ( 'NONE',  ( -0.000000000000000000, -0.000000000000000000, -1.000000000000000000 ) ) ;
#278 = CC_DESIGN_PERSON_AND_ORGANIZATION_ASSIGNMENT ( #41, #290, ( #161 ) ) ;
#279 = AXIS2_PLACEMENT_3D ( 'NONE', #202, #150, #180 ) ;
#280 = PLANE ( 'NONE',  #279 ) ;
#281 =( LENGTH_UNIT ( ) NAMED_UNIT ( * ) SI_UNIT ( .MILLI., .METRE. ) );
#282 = ORIENTED_EDGE ( 'NONE', *, *, #172, .T. ) ;
#283 = AXIS2_PLACEMENT_3D ( 'NONE', #32, #100, #201 ) ;
#284 = ORIENTED_EDGE ( 'NONE', *, *, #247, .T. ) ;
#285 = ORIENTED_EDGE ( 'NONE', *, *, #23, .F. ) ;
#286 = CC_DESIGN_DATE_AND_TIME_ASSIGNMENT ( #245, #222, ( #161 ) ) ;
#287 = EDGE_LOOP ( 'NONE', ( #191, #216, #223, #16 ) ) ;
#288 = AXIS2_PLACEMENT_3D ( 'NONE', #301, #152, #300 ) ;
#289 = VECTOR ( 'NONE', #173, 1000.000000000000000 ) ;
#290 = PERSON_AND_ORGANIZATION_ROLE ( 'creator' ) ;
#291 = DIRECTION ( 'NONE',  ( -0.000000000000000000, -0.000000000000000000, 1.000000000000000000 ) ) ;
#292 = APPROVAL_STATUS ( 'not_yet_approved' ) ;
#293 = ORIENTED_EDGE ( 'NONE', *, *, #254, .T. ) ;
#294 = LOCAL_TIME ( 15, 28, 43.00000000000000000, #26 ) ;
#295 = DIRECTION ( 'NONE',  ( -0.000000000000000000, -0.000000000000000000, -1.000000000000000000 ) ) ;
#296 = CYLINDRICAL_SURFACE ( 'NONE', #38, 5.999999999999996447 ) ;
#297 = SHAPE_DEFINITION_REPRESENTATION ( #178, #221 ) ;
#298 = CARTESIAN_POINT ( 'NONE',  ( -6.000000000000000000, 0.000000000000000000, 14.00000000000000000 ) ) ;
#299 = PLANE ( 'NONE',  #283 ) ;
#300 = DIRECTION ( 'NONE',  ( 1.000000000000000000, 0.000000000000000000, 0.000000000000000000 ) ) ;
#301 = CARTESIAN_POINT ( 'NONE',  ( 0.000000000000000000, 0.000000000000000000, 14.00000000000000000 ) ) ;
#302 = PERSON_AND_ORGANIZATION ( #132, #87 ) ;
#303 = DIRECTION ( 'NONE',  ( 1.000000000000000000, 0.000000000000000000, 0.000000000000000000 ) ) ;
#304 = ORIENTED_EDGE ( 'NONE', *, *, #238, .F. ) ;
#305 = CC_DESIGN_PERSON_AND_ORGANIZATION_ASSIGNMENT ( #302, #158, ( #275 ) ) ;
#306 = APPROVAL_ROLE ( '' ) ;
#307 = CC_DESIGN_PERSON_AND_ORGANIZATION_ASSIGNMENT ( #46, #73, ( #9 ) ) ;
#308 = EDGE_LOOP ( 'NONE', ( #35, #241, #293, #71 ) ) ;
#309 = CIRCLE ( 'NONE', #104, 5.999999999999998224 ) ;
#310 = DATE_AND_TIME ( #224, #188 ) ;
#311 = EDGE_CURVE ( 'NONE', #83, #159, #48, .T. ) ;
#312 = DIRECTION ( 'NONE',  ( -0.000000000000000000, -0.000000000000000000, 1.000000000000000000 ) ) ;
#313 = CALENDAR_DATE ( 2024, 12, 2 ) ;
ENDSEC;
END-ISO-10303-21;
