ISO-10303-21;
HEADER;
FILE_DESCRIPTION (( 'STEP AP214' ),
    '1' );
FILE_NAME ('CUT-153-02-04.step',
    '2019-06-05T11:20:15',
    ( '' ),
    ( '' ),
    'SwSTEP 2.0',
    'SolidWorks 2018',
    '' );
FILE_SCHEMA (( 'AUTOMOTIVE_DESIGN' ));
ENDSEC;

DATA;
#1 = DIRECTION ( 'NONE',  ( 1.161518853562087414E-16, 1.000000000000000000, -2.721450164542462693E-15 ) ) ;
#2 = CARTESIAN_POINT ( 'NONE',  ( 125.0000000000000000, -25.00000000000000000, 0.0000000000000000000 ) ) ;
#3 = PLANE ( 'NONE',  #88 ) ;
#4 = DIRECTION ( 'NONE',  ( 9.514605433755934095E-17, 0.8191520442889946851, 0.5735764363510417185 ) ) ;
#5 = CARTESIAN_POINT ( 'NONE',  ( 3.000000000000002665, -0.2199113894877525177, -1.564750842369094785 ) ) ;
#6 = CARTESIAN_POINT ( 'NONE',  ( 3.000000000000002665, -8.445896366636842956, 5.551115123125782702E-14 ) ) ;
#7 = CARTESIAN_POINT ( 'NONE',  ( 16.84314575050761675, -1.000000000000000000, -16.00000000000000000 ) ) ;
#8 = CARTESIAN_POINT ( 'NONE',  ( 3.469446951953614189E-15, 1.613292832658430598E-13, -1.387778780781445676E-14 ) ) ;
#9 = ORIENTED_EDGE ( 'NONE', *, *, #74, .F. ) ;
#10 = MECHANICAL_DESIGN_GEOMETRIC_PRESENTATION_REPRESENTATION (  '', ( #282 ), #314 ) ;
#11 = CARTESIAN_POINT ( 'NONE',  ( 3.000000000000002665, 1.613292832658430598E-13, -1.387778780781445676E-14 ) ) ;
#12 = CARTESIAN_POINT ( 'NONE',  ( 23.49999999999998579, 0.0000000000000000000, -16.00000000000000000 ) ) ;
#13 = ORIENTED_EDGE ( 'NONE', *, *, #199, .F. ) ;
#14 = CARTESIAN_POINT ( 'NONE',  ( 2.914230647672874042E-15, -5.000000000000020428, -4.911804920760125093 ) ) ;
#15 = PLANE ( 'NONE',  #143 ) ;
#16 = ADVANCED_FACE ( 'NONE', ( #302 ), #328, .F. ) ;
#17 = APPLICATION_CONTEXT ( 'automotive_design' ) ;
#18 = DIRECTION ( 'NONE',  ( 0.7071067811865463515, 0.7071067811865487940, 0.0000000000000000000 ) ) ;
#19 = DIRECTION ( 'NONE',  ( 0.0000000000000000000, 0.0000000000000000000, 1.000000000000000000 ) ) ;
#20 = EDGE_LOOP ( 'NONE', ( #244, #388, #316, #306 ) ) ;
#21 = CARTESIAN_POINT ( 'NONE',  ( 23.49999999999998579, 0.0000000000000000000, -16.00000000000000000 ) ) ;
#22 = DIRECTION ( 'NONE',  ( -1.000000000000000000, 1.161518853562087414E-16, 0.0000000000000000000 ) ) ;
#23 = EDGE_LOOP ( 'NONE', ( #67, #263, #250, #209, #189, #350, #339, #187, #383 ) ) ;
#24 = DIRECTION ( 'NONE',  ( 1.000000000000000000, 0.0000000000000000000, 0.0000000000000000000 ) ) ;
#25 = CARTESIAN_POINT ( 'NONE',  ( 3.000000000000003109, -5.000000000000021316, 2.560824265498195647E-14 ) ) ;
#26 = DIRECTION ( 'NONE',  ( 1.000000000000000000, 0.0000000000000000000, 0.0000000000000000000 ) ) ;
#27 = DIRECTION ( 'NONE',  ( 0.0000000000000000000, 0.0000000000000000000, 1.000000000000000000 ) ) ;
#28 = FACE_OUTER_BOUND ( 'NONE', #173, .T. ) ;
#29 = LINE ( 'NONE', #344, #247 ) ;
#30 = CARTESIAN_POINT ( 'NONE',  ( 2.449293598294706513E-15, -5.000000000000000000, 0.0000000000000000000 ) ) ;
#31 = AXIS2_PLACEMENT_3D ( 'NONE', #7, #182, #198 ) ;
#32 = CARTESIAN_POINT ( 'NONE',  ( 3.000000000000002665, 1.613292832658430598E-13, -1.387778780781445676E-14 ) ) ;
#33 = DIRECTION ( 'NONE',  ( 1.224646799147353207E-16, 1.000000000000000000, 0.0000000000000000000 ) ) ;
#34 = ORIENTED_EDGE ( 'NONE', *, *, #373, .T. ) ;
#35 = CARTESIAN_POINT ( 'NONE',  ( 125.0000000000000000, -16.00000000000000000, 0.0000000000000000000 ) ) ;
#36 = DIRECTION ( 'NONE',  ( 0.0000000000000000000, 0.0000000000000000000, 1.000000000000000000 ) ) ;
#37 = ORIENTED_EDGE ( 'NONE', *, *, #174, .F. ) ;
#38 = DIRECTION ( 'NONE',  ( 0.0000000000000000000, -1.000000000000000000, 0.0000000000000000000 ) ) ;
#39 = CARTESIAN_POINT ( 'NONE',  ( 23.49999999999998579, 0.0000000000000000000, 0.0000000000000000000 ) ) ;
#40 = DIRECTION ( 'NONE',  ( 1.161518853562087414E-16, 1.000000000000000000, -2.721450164542462693E-15 ) ) ;
#41 =( NAMED_UNIT ( * ) PLANE_ANGLE_UNIT ( ) SI_UNIT ( $, .RADIAN. ) );
#42 = VECTOR ( 'NONE', #279, 1000.000000000000000 ) ;
#43 = DIRECTION ( 'NONE',  ( 0.0000000000000000000, 0.0000000000000000000, 1.000000000000000000 ) ) ;
#44 = ORIENTED_EDGE ( 'NONE', *, *, #96, .T. ) ;
#45 = CARTESIAN_POINT ( 'NONE',  ( 3.000000000000002665, -0.2199113894877525177, -1.564750842369094785 ) ) ;
#46 = ORIENTED_EDGE ( 'NONE', *, *, #138, .T. ) ;
#47 = LINE ( 'NONE', #192, #346 ) ;
#48 = DIRECTION ( 'NONE',  ( 1.616521806738838867E-17, 0.1391731009601240021, 0.9902680687415620353 ) ) ;
#49 = CARTESIAN_POINT ( 'NONE',  ( 23.49999999999998579, 0.0000000000000000000, -16.00000000000000000 ) ) ;
#50 = PRESENTATION_STYLE_ASSIGNMENT (( #146 ) ) ;
#51 = LINE ( 'NONE', #32, #171 ) ;
#52 = ADVANCED_FACE ( 'NONE', ( #280 ), #118, .T. ) ;
#53 = ORIENTED_EDGE ( 'NONE', *, *, #199, .T. ) ;
#54 = VECTOR ( 'NONE', #151, 1000.000000000000000 ) ;
#55 = VECTOR ( 'NONE', #368, 1000.000000000000000 ) ;
#56 = CARTESIAN_POINT ( 'NONE',  ( 2.449293598294706513E-15, -5.000000000000000000, -16.00000000000000000 ) ) ;
#57 = EDGE_CURVE ( 'NONE', #378, #340, #168, .T. ) ;
#58 = VECTOR ( 'NONE', #352, 1000.000000000000000 ) ;
#59 = ADVANCED_FACE ( 'NONE', ( #133 ), #3, .T. ) ;
#60 = CARTESIAN_POINT ( 'NONE',  ( 125.0000000000000000, -25.00000000000000000, -16.00000000000000000 ) ) ;
#61 = ORIENTED_EDGE ( 'NONE', *, *, #96, .F. ) ;
#62 = AXIS2_PLACEMENT_3D ( 'NONE', #79, #391, #155 ) ;
#63 = EDGE_CURVE ( 'NONE', #226, #235, #364, .T. ) ;
#64 = VECTOR ( 'NONE', #347, 999.9999999999998863 ) ;
#65 = VERTEX_POINT ( 'NONE', #312 ) ;
#66 = VERTEX_POINT ( 'NONE', #39 ) ;
#67 = ORIENTED_EDGE ( 'NONE', *, *, #333, .F. ) ;
#68 = DIRECTION ( 'NONE',  ( 0.0000000000000000000, 0.0000000000000000000, 1.000000000000000000 ) ) ;
#69 = DIRECTION ( 'NONE',  ( 0.0000000000000000000, 1.000000000000000000, 0.0000000000000000000 ) ) ;
#70 = CARTESIAN_POINT ( 'NONE',  ( 23.49999999999998579, 0.0000000000000000000, -16.00000000000000000 ) ) ;
#71 = LINE ( 'NONE', #379, #160 ) ;
#72 = CARTESIAN_POINT ( 'NONE',  ( 8.471437808178909921E-16, -16.00000000000000000, -16.00000000000000000 ) ) ;
#73 = DIRECTION ( 'NONE',  ( 1.000000000000000000, -1.161518853562087414E-16, 0.0000000000000000000 ) ) ;
#74 = EDGE_CURVE ( 'NONE', #165, #378, #240, .T. ) ;
#75 = DIRECTION ( 'NONE',  ( 1.000000000000000000, 0.0000000000000000000, 0.0000000000000000000 ) ) ;
#76 = ORIENTED_EDGE ( 'NONE', *, *, #389, .T. ) ;
#77 = VERTEX_POINT ( 'NONE', #278 ) ;
#78 = FACE_OUTER_BOUND ( 'NONE', #231, .T. ) ;
#79 = CARTESIAN_POINT ( 'NONE',  ( 16.84314575050761675, -1.000000000000000000, -16.00000000000000000 ) ) ;
#80 = EDGE_CURVE ( 'NONE', #301, #325, #180, .T. ) ;
#81 = CARTESIAN_POINT ( 'NONE',  ( 125.0000000000000000, 0.0000000000000000000, -16.00000000000000000 ) ) ;
#82 = FACE_OUTER_BOUND ( 'NONE', #161, .T. ) ;
#83 = CARTESIAN_POINT ( 'NONE',  ( 125.0000000000000000, 0.0000000000000000000, -16.00000000000000000 ) ) ;
#84 = LINE ( 'NONE', #348, #54 ) ;
#85 = ORIENTED_EDGE ( 'NONE', *, *, #74, .T. ) ;
#86 = VECTOR ( 'NONE', #229, 1000.000000000000114 ) ;
#87 = UNCERTAINTY_MEASURE_WITH_UNIT (LENGTH_MEASURE( 1.000000000000000082E-05 ), #219, 'distance_accuracy_value', 'NONE');
#88 = AXIS2_PLACEMENT_3D ( 'NONE', #21, #69, #285 ) ;
#89 = DIRECTION ( 'NONE',  ( 0.0000000000000000000, 0.0000000000000000000, 1.000000000000000000 ) ) ;
#90 = ORIENTED_EDGE ( 'NONE', *, *, #178, .F. ) ;
#91 = VERTEX_POINT ( 'NONE', #249 ) ;
#92 = EDGE_CURVE ( 'NONE', #65, #131, #71, .T. ) ;
#93 = ORIENTED_EDGE ( 'NONE', *, *, #138, .F. ) ;
#94 = EDGE_LOOP ( 'NONE', ( #85, #144, #90, #186 ) ) ;
#95 = EDGE_CURVE ( 'NONE', #226, #201, #382, .T. ) ;
#96 = EDGE_CURVE ( 'NONE', #325, #226, #208, .T. ) ;
#97 = AXIS2_PLACEMENT_3D ( 'NONE', #56, #140, #268 ) ;
#98 = PLANE ( 'NONE',  #104 ) ;
#99 = ORIENTED_EDGE ( 'NONE', *, *, #107, .F. ) ;
#100 = ORIENTED_EDGE ( 'NONE', *, *, #107, .T. ) ;
#101 = CARTESIAN_POINT ( 'NONE',  ( 8.471437808178909921E-16, -16.00000000000000000, -16.00000000000000000 ) ) ;
#102 = COLOUR_RGB ( '',0.9372549019607843146, 0.9607843137254902244, 1.000000000000000000 ) ;
#103 =( NAMED_UNIT ( * ) PLANE_ANGLE_UNIT ( ) SI_UNIT ( $, .RADIAN. ) );
#104 = AXIS2_PLACEMENT_3D ( 'NONE', #60, #253, #184 ) ;
#105 = ORIENTED_EDGE ( 'NONE', *, *, #356, .T. ) ;
#106 = CARTESIAN_POINT ( 'NONE',  ( 125.0000000000000000, -25.00000000000000000, -16.00000000000000000 ) ) ;
#107 = EDGE_CURVE ( 'NONE', #77, #299, #51, .T. ) ;
#108 = CARTESIAN_POINT ( 'NONE',  ( 125.0000000000000000, -16.00000000000000000, -16.00000000000000000 ) ) ;
#109 = CARTESIAN_POINT ( 'NONE',  ( 0.0000000000000000000, 0.0000000000000000000, -16.00000000000000000 ) ) ;
#110 = LINE ( 'NONE', #8, #309 ) ;
#111 = DIRECTION ( 'NONE',  ( -0.0000000000000000000, -0.0000000000000000000, -1.000000000000000000 ) ) ;
#112 = DIRECTION ( 'NONE',  ( 1.616521806738838559E-17, 0.1391731009601240021, 0.9902680687415620353 ) ) ;
#113 = DIRECTION ( 'NONE',  ( 0.0000000000000000000, 0.0000000000000000000, 1.000000000000000000 ) ) ;
#114 = FACE_OUTER_BOUND ( 'NONE', #94, .T. ) ;
#115 = ORIENTED_EDGE ( 'NONE', *, *, #80, .F. ) ;
#116 = ADVANCED_FACE ( 'NONE', ( #225 ), #254, .F. ) ;
#117 = ADVANCED_FACE ( 'NONE', ( #336 ), #15, .F. ) ;
#118 = PLANE ( 'NONE',  #156 ) ;
#119 = CARTESIAN_POINT ( 'NONE',  ( 16.84314575050761675, -5.000000000000000000, 0.0000000000000000000 ) ) ;
#120 = ORIENTED_EDGE ( 'NONE', *, *, #80, .T. ) ;
#121 = FILL_AREA_STYLE ('',( #326 ) ) ;
#122 = CARTESIAN_POINT ( 'NONE',  ( 18.50000000000000355, -5.000000000000000000, -16.00000000000000000 ) ) ;
#123 = AXIS2_PLACEMENT_3D ( 'NONE', #224, #319, #18 ) ;
#124 = LINE ( 'NONE', #202, #130 ) ;
#125 = CARTESIAN_POINT ( 'NONE',  ( 19.67157287525381193, -3.828427124746186294, 0.0000000000000000000 ) ) ;
#126 = EDGE_CURVE ( 'NONE', #235, #222, #150, .T. ) ;
#127 = ORIENTED_EDGE ( 'NONE', *, *, #317, .F. ) ;
#128 = ORIENTED_EDGE ( 'NONE', *, *, #207, .F. ) ;
#129 = FILL_AREA_STYLE ('',( #223 ) ) ;
#130 = VECTOR ( 'NONE', #111, 1000.000000000000000 ) ;
#131 = VERTEX_POINT ( 'NONE', #119 ) ;
#132 = ORIENTED_EDGE ( 'NONE', *, *, #139, .T. ) ;
#133 = FACE_OUTER_BOUND ( 'NONE', #214, .T. ) ;
#134 = LINE ( 'NONE', #366, #42 ) ;
#135 = PLANE ( 'NONE',  #170 ) ;
#136 = ADVANCED_BREP_SHAPE_REPRESENTATION ( 'CUT-153-02-04', ( #179, #251 ), #377 ) ;
#137 = CARTESIAN_POINT ( 'NONE',  ( 3.000000000000002665, -7.499999999999902300, -2.999999999999954259 ) ) ;
#138 = EDGE_CURVE ( 'NONE', #201, #222, #315, .T. ) ;
#139 = EDGE_CURVE ( 'NONE', #165, #355, #390, .T. ) ;
#140 = DIRECTION ( 'NONE',  ( 0.0000000000000000000, 1.000000000000000000, 0.0000000000000000000 ) ) ;
#141 = PRODUCT ( 'CUT-153-02-04', 'CUT-153-02-04', '', ( #272 ) ) ;
#142 = ORIENTED_EDGE ( 'NONE', *, *, #178, .T. ) ;
#143 = AXIS2_PLACEMENT_3D ( 'NONE', #109, #36, #75 ) ;
#144 = ORIENTED_EDGE ( 'NONE', *, *, #57, .T. ) ;
#145 = VECTOR ( 'NONE', #327, 1000.000000000000000 ) ;
#146 = SURFACE_STYLE_USAGE ( .BOTH. , #276 ) ;
#147 = ORIENTED_EDGE ( 'NONE', *, *, #356, .F. ) ;
#148 = EDGE_LOOP ( 'NONE', ( #53, #37, #99, #142 ) ) ;
#149 = PRODUCT_DEFINITION_CONTEXT ( 'detailed design', #380, 'design' ) ;
#150 = LINE ( 'NONE', #2, #310 ) ;
#151 = DIRECTION ( 'NONE',  ( -1.161518853562087414E-16, -1.000000000000000000, 8.677831656748562794E-15 ) ) ;
#152 = ORIENTED_EDGE ( 'NONE', *, *, #373, .F. ) ;
#153 = ADVANCED_FACE ( 'NONE', ( #258 ), #162, .T. ) ;
#154 = MECHANICAL_DESIGN_GEOMETRIC_PRESENTATION_REPRESENTATION (  '', ( #234 ), #376 ) ;
#155 = DIRECTION ( 'NONE',  ( 1.000000000000000000, 0.0000000000000000000, 0.0000000000000000000 ) ) ;
#156 = AXIS2_PLACEMENT_3D ( 'NONE', #349, #172, #217 ) ;
#157 = LINE ( 'NONE', #45, #292 ) ;
#158 = DIRECTION ( 'NONE',  ( 0.0000000000000000000, 0.0000000000000000000, -1.000000000000000000 ) ) ;
#159 = DIRECTION ( 'NONE',  ( 0.0000000000000000000, -1.000000000000000000, 0.0000000000000000000 ) ) ;
#160 = VECTOR ( 'NONE', #43, 1000.000000000000000 ) ;
#161 = EDGE_LOOP ( 'NONE', ( #93, #369, #321, #293 ) ) ;
#162 = PLANE ( 'NONE',  #384 ) ;
#163 = VECTOR ( 'NONE', #38, 1000.000000000000000 ) ;
#164 = CARTESIAN_POINT ( 'NONE',  ( 125.0000000000000000, -16.00000000000000000, -16.00000000000000000 ) ) ;
#165 = VERTEX_POINT ( 'NONE', #401 ) ;
#166 = DIRECTION ( 'NONE',  ( 6.662198447806896522E-17, 0.5735764363510418296, -0.8191520442889947962 ) ) ;
#167 = PLANE ( 'NONE',  #357 ) ;
#168 = LINE ( 'NONE', #343, #337 ) ;
#169 = LINE ( 'NONE', #72, #195 ) ;
#170 = AXIS2_PLACEMENT_3D ( 'NONE', #137, #200, #40 ) ;
#171 = VECTOR ( 'NONE', #260, 1000.000000000000227 ) ;
#172 = DIRECTION ( 'NONE',  ( 1.007946507735138592E-30, 8.677831656748562794E-15, 1.000000000000000000 ) ) ;
#173 = EDGE_LOOP ( 'NONE', ( #9, #132, #221, #392, #152, #76 ) ) ;
#174 = EDGE_CURVE ( 'NONE', #299, #313, #134, .T. ) ;
#175 = DIRECTION ( 'NONE',  ( -1.000000000000000000, 1.161518853562087414E-16, 6.162975822039154730E-33 ) ) ;
#176 = CARTESIAN_POINT ( 'NONE',  ( 3.469446951953614189E-15, 1.613292832658430598E-13, -1.387778780781445676E-14 ) ) ;
#177 = DIRECTION ( 'NONE',  ( 9.514605433755934095E-17, 0.8191520442889946851, 0.5735764363510417185 ) ) ;
#178 = EDGE_CURVE ( 'NONE', #77, #340, #157, .T. ) ;
#179 = MANIFOLD_SOLID_BREP ( 'Spiegeln1', #396 ) ;
#180 = LINE ( 'NONE', #122, #64 ) ;
#181 = ORIENTED_EDGE ( 'NONE', *, *, #95, .T. ) ;
#182 = DIRECTION ( 'NONE',  ( 0.0000000000000000000, 0.0000000000000000000, -1.000000000000000000 ) ) ;
#183 = CARTESIAN_POINT ( 'NONE',  ( 16.84314575050761675, -1.000000000000000000, 0.0000000000000000000 ) ) ;
#184 = DIRECTION ( 'NONE',  ( 0.0000000000000000000, -0.0000000000000000000, -1.000000000000000000 ) ) ;
#185 = ADVANCED_FACE ( 'NONE', ( #78 ), #167, .F. ) ;
#186 = ORIENTED_EDGE ( 'NONE', *, *, #362, .F. ) ;
#187 = ORIENTED_EDGE ( 'NONE', *, *, #385, .F. ) ;
#188 = PRODUCT_RELATED_PRODUCT_CATEGORY ( 'part', '', ( #141 ) ) ;
#189 = ORIENTED_EDGE ( 'NONE', *, *, #317, .T. ) ;
#190 = EDGE_CURVE ( 'NONE', #270, #301, #124, .T. ) ;
#191 =( NAMED_UNIT ( * ) PLANE_ANGLE_UNIT ( ) SI_UNIT ( $, .RADIAN. ) );
#192 = CARTESIAN_POINT ( 'NONE',  ( 2.449293598294706513E-15, -5.000000000000000000, -16.00000000000000000 ) ) ;
#193 = LINE ( 'NONE', #338, #262 ) ;
#194 = DIRECTION ( 'NONE',  ( 1.000000000000000000, 0.0000000000000000000, 0.0000000000000000000 ) ) ;
#195 = VECTOR ( 'NONE', #24, 1000.000000000000000 ) ;
#196 = SURFACE_STYLE_FILL_AREA ( #129 ) ;
#197 = PLANE ( 'NONE',  #123 ) ;
#198 = DIRECTION ( 'NONE',  ( -1.000000000000000000, 0.0000000000000000000, 0.0000000000000000000 ) ) ;
#199 = EDGE_CURVE ( 'NONE', #340, #313, #110, .T. ) ;
#200 = DIRECTION ( 'NONE',  ( 1.000000000000000000, -1.161518853562087414E-16, 0.0000000000000000000 ) ) ;
#201 = VERTEX_POINT ( 'NONE', #164 ) ;
#202 = CARTESIAN_POINT ( 'NONE',  ( 19.67157287525381193, -3.828427124746186294, -16.00000000000000000 ) ) ;
#203 = EDGE_CURVE ( 'NONE', #66, #235, #284, .T. ) ;
#204 = ORIENTED_EDGE ( 'NONE', *, *, #341, .F. ) ;
#205 =( NAMED_UNIT ( * ) SI_UNIT ( $, .STERADIAN. ) SOLID_ANGLE_UNIT ( ) );
#206 =( LENGTH_UNIT ( ) NAMED_UNIT ( * ) SI_UNIT ( .MILLI., .METRE. ) );
#207 = EDGE_CURVE ( 'NONE', #301, #65, #261, .T. ) ;
#208 = LINE ( 'NONE', #70, #218 ) ;
#209 = ORIENTED_EDGE ( 'NONE', *, *, #274, .T. ) ;
#210 = ADVANCED_FACE ( 'NONE', ( #82 ), #98, .T. ) ;
#211 = ORIENTED_EDGE ( 'NONE', *, *, #190, .F. ) ;
#212 = CARTESIAN_POINT ( 'NONE',  ( 19.67157287525381193, -3.828427124746186294, -16.00000000000000000 ) ) ;
#213 = ORIENTED_EDGE ( 'NONE', *, *, #63, .F. ) ;
#214 = EDGE_LOOP ( 'NONE', ( #398, #213, #61, #358 ) ) ;
#215 = VECTOR ( 'NONE', #273, 1000.000000000000000 ) ;
#216 = VECTOR ( 'NONE', #275, 1000.000000000000000 ) ;
#217 = DIRECTION ( 'NONE',  ( -1.161518853562087414E-16, -1.000000000000000000, 8.677831656748562794E-15 ) ) ;
#218 = VECTOR ( 'NONE', #26, 1000.000000000000000 ) ;
#219 =( LENGTH_UNIT ( ) NAMED_UNIT ( * ) SI_UNIT ( .MILLI., .METRE. ) );
#220 = PRODUCT_DEFINITION ( 'UNKNOWN', '', #320, #149 ) ;
#221 = ORIENTED_EDGE ( 'NONE', *, *, #333, .T. ) ;
#222 = VERTEX_POINT ( 'NONE', #35 ) ;
#223 = FILL_AREA_STYLE_COLOUR ( '', #102 ) ;
#224 = CARTESIAN_POINT ( 'NONE',  ( 18.50000000000000355, -5.000000000000000000, -16.00000000000000000 ) ) ;
#225 = FACE_OUTER_BOUND ( 'NONE', #329, .T. ) ;
#226 = VERTEX_POINT ( 'NONE', #83 ) ;
#227 = SURFACE_STYLE_USAGE ( .BOTH. , #295 ) ;
#228 = AXIS2_PLACEMENT_3D ( 'NONE', #290, #166, #4 ) ;
#229 = DIRECTION ( 'NONE',  ( 9.514605433755934095E-17, 0.8191520442889946851, 0.5735764363510417185 ) ) ;
#230 = CARTESIAN_POINT ( 'NONE',  ( 3.000000000000002665, 1.613292832658430598E-13, -1.387778780781445676E-14 ) ) ;
#231 = EDGE_LOOP ( 'NONE', ( #386, #46, #127, #147 ) ) ;
#232 = APPLICATION_PROTOCOL_DEFINITION ( 'draft international standard', 'automotive_design', 1998, #380 ) ;
#233 = EDGE_LOOP ( 'NONE', ( #288, #277, #100, #259 ) ) ;
#234 = STYLED_ITEM ( 'NONE', ( #50 ), #179 ) ;
#235 = VERTEX_POINT ( 'NONE', #381 ) ;
#236 = ORIENTED_EDGE ( 'NONE', *, *, #274, .F. ) ;
#237 = DIRECTION ( 'NONE',  ( 1.150215031923841474E-16, 0.9902680687415621463, -0.1391731009601240299 ) ) ;
#238 = CARTESIAN_POINT ( 'NONE',  ( 2.449293598294706513E-15, -5.000000000000000000, -16.00000000000000000 ) ) ;
#239 = ORIENTED_EDGE ( 'NONE', *, *, #269, .T. ) ;
#240 = LINE ( 'NONE', #248, #318 ) ;
#241 = FACE_OUTER_BOUND ( 'NONE', #233, .T. ) ;
#242 = EDGE_CURVE ( 'NONE', #299, #355, #252, .T. ) ;
#243 = CARTESIAN_POINT ( 'NONE',  ( 1.102182119232617911E-15, -16.00000000000000000, 0.0000000000000000000 ) ) ;
#244 = ORIENTED_EDGE ( 'NONE', *, *, #207, .T. ) ;
#245 = VERTEX_POINT ( 'NONE', #238 ) ;
#246 = APPLICATION_PROTOCOL_DEFINITION ( 'draft international standard', 'automotive_design', 1998, #17 ) ;
#247 = VECTOR ( 'NONE', #387, 1000.000000000000000 ) ;
#248 = CARTESIAN_POINT ( 'NONE',  ( 3.000000000000002220, -5.000000000000022204, -4.911804920760125981 ) ) ;
#249 = CARTESIAN_POINT ( 'NONE',  ( 8.471437808178909921E-16, -16.00000000000000000, -16.00000000000000000 ) ) ;
#250 = ORIENTED_EDGE ( 'NONE', *, *, #174, .T. ) ;
#251 = AXIS2_PLACEMENT_3D ( 'NONE', #342, #27, #351 ) ;
#252 = LINE ( 'NONE', #6, #216 ) ;
#253 = DIRECTION ( 'NONE',  ( 1.000000000000000000, 0.0000000000000000000, 0.0000000000000000000 ) ) ;
#254 = PLANE ( 'NONE',  #296 ) ;
#255 =( NAMED_UNIT ( * ) SI_UNIT ( $, .STERADIAN. ) SOLID_ANGLE_UNIT ( ) );
#256 = PRESENTATION_LAYER_ASSIGNMENT (  '', '', ( #234 ) ) ;
#257 = DIRECTION ( 'NONE',  ( 0.0000000000000000000, 1.000000000000000000, 0.0000000000000000000 ) ) ;
#258 = FACE_OUTER_BOUND ( 'NONE', #148, .T. ) ;
#259 = ORIENTED_EDGE ( 'NONE', *, *, #242, .T. ) ;
#260 = DIRECTION ( 'NONE',  ( 1.616521806738838559E-17, 0.1391731009601240021, 0.9902680687415620353 ) ) ;
#261 = CIRCLE ( 'NONE', #62, 4.000000000000000000 ) ;
#262 = VECTOR ( 'NONE', #33, 1000.000000000000000 ) ;
#263 = ORIENTED_EDGE ( 'NONE', *, *, #242, .F. ) ;
#264 = CARTESIAN_POINT ( 'NONE',  ( 18.50000000000000355, -5.000000000000000000, 0.0000000000000000000 ) ) ;
#265 = VECTOR ( 'NONE', #402, 1000.000000000000000 ) ;
#266 = PRESENTATION_STYLE_ASSIGNMENT (( #227 ) ) ;
#267 = ADVANCED_FACE ( 'NONE', ( #370 ), #197, .T. ) ;
#268 = DIRECTION ( 'NONE',  ( 0.0000000000000000000, 0.0000000000000000000, -1.000000000000000000 ) ) ;
#269 = EDGE_CURVE ( 'NONE', #91, #245, #193, .T. ) ;
#270 = VERTEX_POINT ( 'NONE', #125 ) ;
#271 = LINE ( 'NONE', #264, #375 ) ;
#272 = PRODUCT_CONTEXT ( 'NONE', #17, 'mechanical' ) ;
#273 = DIRECTION ( 'NONE',  ( 0.0000000000000000000, 0.0000000000000000000, 1.000000000000000000 ) ) ;
#274 = EDGE_CURVE ( 'NONE', #313, #298, #84, .T. ) ;
#275 = DIRECTION ( 'NONE',  ( -1.161518853562087414E-16, -1.000000000000000000, 8.677831656748562794E-15 ) ) ;
#276 = SURFACE_SIDE_STYLE ('',( #196 ) ) ;
#277 = ORIENTED_EDGE ( 'NONE', *, *, #362, .T. ) ;
#278 = CARTESIAN_POINT ( 'NONE',  ( 3.000000000000002665, -0.2199113894877525177, -1.564750842369094785 ) ) ;
#279 = DIRECTION ( 'NONE',  ( -1.000000000000000000, 1.161518853562087414E-16, 0.0000000000000000000 ) ) ;
#280 = FACE_OUTER_BOUND ( 'NONE', #23, .T. ) ;
#281 = EDGE_CURVE ( 'NONE', #325, #66, #345, .T. ) ;
#282 = STYLED_ITEM ( 'NONE', ( #266 ), #136 ) ;
#283 = VECTOR ( 'NONE', #89, 1000.000000000000000 ) ;
#284 = LINE ( 'NONE', #361, #58 ) ;
#285 = DIRECTION ( 'NONE',  ( 0.0000000000000000000, 0.0000000000000000000, -1.000000000000000000 ) ) ;
#286 = ORIENTED_EDGE ( 'NONE', *, *, #389, .F. ) ;
#287 = LINE ( 'NONE', #332, #265 ) ;
#288 = ORIENTED_EDGE ( 'NONE', *, *, #139, .F. ) ;
#289 = LINE ( 'NONE', #5, #86 ) ;
#290 = CARTESIAN_POINT ( 'NONE',  ( 3.000000000000002665, -0.2199113894877525177, -1.564750842369094785 ) ) ;
#291 = DIRECTION ( 'NONE',  ( 1.000000000000000000, -2.656295322589485863E-15, 0.0000000000000000000 ) ) ;
#292 = VECTOR ( 'NONE', #22, 1000.000000000000000 ) ;
#293 = ORIENTED_EDGE ( 'NONE', *, *, #126, .T. ) ;
#294 = LINE ( 'NONE', #30, #395 ) ;
#295 = SURFACE_SIDE_STYLE ('',( #393 ) ) ;
#296 = AXIS2_PLACEMENT_3D ( 'NONE', #354, #73, #1 ) ;
#297 = ORIENTED_EDGE ( 'NONE', *, *, #281, .F. ) ;
#298 = VERTEX_POINT ( 'NONE', #243 ) ;
#299 = VERTEX_POINT ( 'NONE', #230 ) ;
#300 = AXIS2_PLACEMENT_3D ( 'NONE', #183, #68, #291 ) ;
#301 = VERTEX_POINT ( 'NONE', #212 ) ;
#302 = FACE_OUTER_BOUND ( 'NONE', #20, .T. ) ;
#303 = ADVANCED_FACE ( 'NONE', ( #28 ), #311, .T. ) ;
#304 = PLANE ( 'NONE',  #228 ) ;
#305 = CARTESIAN_POINT ( 'NONE',  ( 3.469446951953614189E-15, -0.2199113894877525177, -1.564750842369094785 ) ) ;
#306 = ORIENTED_EDGE ( 'NONE', *, *, #190, .T. ) ;
#307 =( LENGTH_UNIT ( ) NAMED_UNIT ( * ) SI_UNIT ( .MILLI., .METRE. ) );
#308 = ORIENTED_EDGE ( 'NONE', *, *, #269, .F. ) ;
#309 = VECTOR ( 'NONE', #112, 1000.000000000000227 ) ;
#310 = VECTOR ( 'NONE', #159, 1000.000000000000000 ) ;
#311 = PLANE ( 'NONE',  #97 ) ;
#312 = CARTESIAN_POINT ( 'NONE',  ( 16.84314575050761675, -5.000000000000000000, -16.00000000000000000 ) ) ;
#313 = VERTEX_POINT ( 'NONE', #176 ) ;
#314 =( GEOMETRIC_REPRESENTATION_CONTEXT ( 3 ) GLOBAL_UNCERTAINTY_ASSIGNED_CONTEXT ( ( #399 ) ) GLOBAL_UNIT_ASSIGNED_CONTEXT ( ( #206, #191, #323 ) ) REPRESENTATION_CONTEXT ( 'NONE', 'WORKASPACE' ) );
#315 = LINE ( 'NONE', #108, #283 ) ;
#316 = ORIENTED_EDGE ( 'NONE', *, *, #322, .T. ) ;
#317 = EDGE_CURVE ( 'NONE', #298, #222, #29, .T. ) ;
#318 = VECTOR ( 'NONE', #175, 1000.000000000000000 ) ;
#319 = DIRECTION ( 'NONE',  ( -0.7071067811865487940, 0.7071067811865463515, 0.0000000000000000000 ) ) ;
#320 = PRODUCT_DEFINITION_FORMATION_WITH_SPECIFIED_SOURCE ( 'ANY', '', #141, .NOT_KNOWN. ) ;
#321 = ORIENTED_EDGE ( 'NONE', *, *, #63, .T. ) ;
#322 = EDGE_CURVE ( 'NONE', #131, #270, #360, .T. ) ;
#323 =( NAMED_UNIT ( * ) SI_UNIT ( $, .STERADIAN. ) SOLID_ANGLE_UNIT ( ) );
#324 = ADVANCED_FACE ( 'NONE', ( #241 ), #135, .T. ) ;
#325 = VERTEX_POINT ( 'NONE', #12 ) ;
#326 = FILL_AREA_STYLE_COLOUR ( '', #374 ) ;
#327 = DIRECTION ( 'NONE',  ( 0.0000000000000000000, 0.0000000000000000000, 1.000000000000000000 ) ) ;
#328 = CYLINDRICAL_SURFACE ( 'NONE', #31, 4.000000000000000000 ) ;
#329 = EDGE_LOOP ( 'NONE', ( #236, #13, #335, #286, #308, #105 ) ) ;
#330 = CARTESIAN_POINT ( 'NONE',  ( 2.999999999999999556, -5.000000000000021316, -5.999999999999965361 ) ) ;
#331 = CARTESIAN_POINT ( 'NONE',  ( 2.449293598294706513E-15, -5.000000000000000000, -16.00000000000000000 ) ) ;
#332 = CARTESIAN_POINT ( 'NONE',  ( 8.471437808178909921E-16, -16.00000000000000000, -16.00000000000000000 ) ) ;
#333 = EDGE_CURVE ( 'NONE', #355, #131, #294, .T. ) ;
#334 = PRESENTATION_LAYER_ASSIGNMENT (  '', '', ( #282 ) ) ;
#335 = ORIENTED_EDGE ( 'NONE', *, *, #57, .F. ) ;
#336 = FACE_OUTER_BOUND ( 'NONE', #394, .T. ) ;
#337 = VECTOR ( 'NONE', #177, 1000.000000000000114 ) ;
#338 = CARTESIAN_POINT ( 'NONE',  ( 0.0000000000000000000, -25.00000000000000000, -16.00000000000000000 ) ) ;
#339 = ORIENTED_EDGE ( 'NONE', *, *, #203, .F. ) ;
#340 = VERTEX_POINT ( 'NONE', #305 ) ;
#341 = EDGE_CURVE ( 'NONE', #91, #201, #169, .T. ) ;
#342 = CARTESIAN_POINT ( 'NONE',  ( 0.0000000000000000000, 0.0000000000000000000, 0.0000000000000000000 ) ) ;
#343 = CARTESIAN_POINT ( 'NONE',  ( 3.469446951953614189E-15, -0.2199113894877525177, -1.564750842369094785 ) ) ;
#344 = CARTESIAN_POINT ( 'NONE',  ( 8.471437808178909921E-16, -16.00000000000000000, 0.0000000000000000000 ) ) ;
#345 = LINE ( 'NONE', #49, #145 ) ;
#346 = VECTOR ( 'NONE', #19, 1000.000000000000000 ) ;
#347 = DIRECTION ( 'NONE',  ( 0.7071067811865463515, 0.7071067811865487940, 0.0000000000000000000 ) ) ;
#348 = CARTESIAN_POINT ( 'NONE',  ( 3.469446951953614189E-15, -8.445896366636842956, 5.551115123125782702E-14 ) ) ;
#349 = CARTESIAN_POINT ( 'NONE',  ( 3.000000000000002665, -8.445896366636842956, 5.551115123125782702E-14 ) ) ;
#350 = ORIENTED_EDGE ( 'NONE', *, *, #126, .F. ) ;
#351 = DIRECTION ( 'NONE',  ( 1.000000000000000000, 0.0000000000000000000, 0.0000000000000000000 ) ) ;
#352 = DIRECTION ( 'NONE',  ( 1.000000000000000000, 0.0000000000000000000, 0.0000000000000000000 ) ) ;
#353 = ADVANCED_FACE ( 'NONE', ( #114 ), #304, .T. ) ;
#354 = CARTESIAN_POINT ( 'NONE',  ( 3.469446951953614189E-15, -7.499999999999902300, -2.999999999999954259 ) ) ;
#355 = VERTEX_POINT ( 'NONE', #25 ) ;
#356 = EDGE_CURVE ( 'NONE', #91, #298, #287, .T. ) ;
#357 = AXIS2_PLACEMENT_3D ( 'NONE', #101, #257, #158 ) ;
#358 = ORIENTED_EDGE ( 'NONE', *, *, #281, .T. ) ;
#359 = ORIENTED_EDGE ( 'NONE', *, *, #385, .T. ) ;
#360 = CIRCLE ( 'NONE', #300, 4.000000000000000000 ) ;
#361 = CARTESIAN_POINT ( 'NONE',  ( 23.49999999999998579, 0.0000000000000000000, 0.0000000000000000000 ) ) ;
#362 = EDGE_CURVE ( 'NONE', #165, #77, #289, .T. ) ;
#363 = PRODUCT_DEFINITION_SHAPE ( 'NONE', 'NONE',  #220 ) ;
#364 = LINE ( 'NONE', #81, #215 ) ;
#365 = UNCERTAINTY_MEASURE_WITH_UNIT (LENGTH_MEASURE( 1.000000000000000082E-05 ), #307, 'distance_accuracy_value', 'NONE');
#366 = CARTESIAN_POINT ( 'NONE',  ( 3.000000000000002665, 1.613292832658430598E-13, -1.387778780781445676E-14 ) ) ;
#367 = VECTOR ( 'NONE', #113, 1000.000000000000000 ) ;
#368 = DIRECTION ( 'NONE',  ( 1.000000000000000000, 0.0000000000000000000, 0.0000000000000000000 ) ) ;
#369 = ORIENTED_EDGE ( 'NONE', *, *, #95, .F. ) ;
#370 = FACE_OUTER_BOUND ( 'NONE', #371, .T. ) ;
#371 = EDGE_LOOP ( 'NONE', ( #359, #297, #115, #211 ) ) ;
#372 = LINE ( 'NONE', #331, #55 ) ;
#373 = EDGE_CURVE ( 'NONE', #245, #65, #372, .T. ) ;
#374 = COLOUR_RGB ( '',0.9372549019607843146, 0.9607843137254902244, 1.000000000000000000 ) ;
#375 = VECTOR ( 'NONE', #400, 999.9999999999998863 ) ;
#376 =( GEOMETRIC_REPRESENTATION_CONTEXT ( 3 ) GLOBAL_UNCERTAINTY_ASSIGNED_CONTEXT ( ( #365 ) ) GLOBAL_UNIT_ASSIGNED_CONTEXT ( ( #307, #41, #255 ) ) REPRESENTATION_CONTEXT ( 'NONE', 'WORKASPACE' ) );
#377 =( GEOMETRIC_REPRESENTATION_CONTEXT ( 3 ) GLOBAL_UNCERTAINTY_ASSIGNED_CONTEXT ( ( #87 ) ) GLOBAL_UNIT_ASSIGNED_CONTEXT ( ( #219, #103, #205 ) ) REPRESENTATION_CONTEXT ( 'NONE', 'WORKASPACE' ) );
#378 = VERTEX_POINT ( 'NONE', #14 ) ;
#379 = CARTESIAN_POINT ( 'NONE',  ( 16.84314575050761675, -5.000000000000000000, 0.0000000000000000000 ) ) ;
#380 = APPLICATION_CONTEXT ( 'automotive_design' ) ;
#381 = CARTESIAN_POINT ( 'NONE',  ( 125.0000000000000000, 0.0000000000000000000, 0.0000000000000000000 ) ) ;
#382 = LINE ( 'NONE', #106, #163 ) ;
#383 = ORIENTED_EDGE ( 'NONE', *, *, #322, .F. ) ;
#384 = AXIS2_PLACEMENT_3D ( 'NONE', #11, #237, #48 ) ;
#385 = EDGE_CURVE ( 'NONE', #270, #66, #271, .T. ) ;
#386 = ORIENTED_EDGE ( 'NONE', *, *, #341, .T. ) ;
#387 = DIRECTION ( 'NONE',  ( 1.000000000000000000, 0.0000000000000000000, 0.0000000000000000000 ) ) ;
#388 = ORIENTED_EDGE ( 'NONE', *, *, #92, .T. ) ;
#389 = EDGE_CURVE ( 'NONE', #245, #378, #47, .T. ) ;
#390 = LINE ( 'NONE', #330, #367 ) ;
#391 = DIRECTION ( 'NONE',  ( -0.0000000000000000000, -0.0000000000000000000, -1.000000000000000000 ) ) ;
#392 = ORIENTED_EDGE ( 'NONE', *, *, #92, .F. ) ;
#393 = SURFACE_STYLE_FILL_AREA ( #121 ) ;
#394 = EDGE_LOOP ( 'NONE', ( #128, #120, #44, #181, #204, #239, #34 ) ) ;
#395 = VECTOR ( 'NONE', #194, 1000.000000000000000 ) ;
#396 = CLOSED_SHELL ( 'NONE', ( #116, #52, #153, #353, #324, #210, #59, #267, #303, #117, #16, #185 ) ) ;
#397 = SHAPE_DEFINITION_REPRESENTATION ( #363, #136 ) ;
#398 = ORIENTED_EDGE ( 'NONE', *, *, #203, .T. ) ;
#399 = UNCERTAINTY_MEASURE_WITH_UNIT (LENGTH_MEASURE( 1.000000000000000082E-05 ), #206, 'distance_accuracy_value', 'NONE');
#400 = DIRECTION ( 'NONE',  ( 0.7071067811865463515, 0.7071067811865487940, 0.0000000000000000000 ) ) ;
#401 = CARTESIAN_POINT ( 'NONE',  ( 2.999999999999999556, -5.000000000000021316, -4.911804920760110882 ) ) ;
#402 = DIRECTION ( 'NONE',  ( 0.0000000000000000000, 0.0000000000000000000, 1.000000000000000000 ) ) ;
ENDSEC;
END-ISO-10303-21;
