ISO-10303-21;
HEADER;
FILE_DESCRIPTION (( 'STEP AP214' ),
    '1' );
FILE_NAME ('CUT-153-02-08.step',
    '2019-06-05T11:20:24',
    ( '' ),
    ( '' ),
    'SwSTEP 2.0',
    'SolidWorks 2018',
    '' );
FILE_SCHEMA (( 'AUTOMOTIVE_DESIGN' ));
ENDSEC;

DATA;
#1 = CARTESIAN_POINT ( 'NONE',  ( 23.49999999999998579, 0.0000000000000000000, -20.00000000000000000 ) ) ;
#2 = DIRECTION ( 'NONE',  ( 1.161518853562087414E-16, 1.000000000000000000, -2.721450164542462693E-15 ) ) ;
#3 = EDGE_CURVE ( 'NONE', #52, #295, #371, .T. ) ;
#4 = DIRECTION ( 'NONE',  ( 1.000000000000000000, 0.0000000000000000000, 0.0000000000000000000 ) ) ;
#5 = ORIENTED_EDGE ( 'NONE', *, *, #379, .F. ) ;
#6 = ORIENTED_EDGE ( 'NONE', *, *, #341, .T. ) ;
#7 = ORIENTED_EDGE ( 'NONE', *, *, #391, .F. ) ;
#8 = DIRECTION ( 'NONE',  ( 1.150215031923841474E-16, 0.9902680687415621463, -0.1391731009601240299 ) ) ;
#9 = VECTOR ( 'NONE', #335, 1000.000000000000000 ) ;
#10 = FILL_AREA_STYLE ('',( #292 ) ) ;
#11 = VECTOR ( 'NONE', #70, 1000.000000000000000 ) ;
#12 =( NAMED_UNIT ( * ) PLANE_ANGLE_UNIT ( ) SI_UNIT ( $, .RADIAN. ) );
#13 = FACE_OUTER_BOUND ( 'NONE', #120, .T. ) ;
#14 = CARTESIAN_POINT ( 'NONE',  ( 23.49999999999998579, 0.0000000000000000000, -20.00000000000000000 ) ) ;
#15 = CARTESIAN_POINT ( 'NONE',  ( 0.0000000000000000000, 0.0000000000000000000, -20.00000000000000000 ) ) ;
#16 = VECTOR ( 'NONE', #181, 1000.000000000000000 ) ;
#17 = ORIENTED_EDGE ( 'NONE', *, *, #3, .T. ) ;
#18 = EDGE_LOOP ( 'NONE', ( #60, #309, #106, #287 ) ) ;
#19 = EDGE_CURVE ( 'NONE', #46, #304, #213, .T. ) ;
#20 = SURFACE_SIDE_STYLE ('',( #210 ) ) ;
#21 = EDGE_LOOP ( 'NONE', ( #139, #147, #229, #105, #162, #17, #82 ) ) ;
#22 = DIRECTION ( 'NONE',  ( -1.000000000000000000, 0.0000000000000000000, 0.0000000000000000000 ) ) ;
#23 = ORIENTED_EDGE ( 'NONE', *, *, #358, .F. ) ;
#24 = DIRECTION ( 'NONE',  ( 0.0000000000000000000, 0.0000000000000000000, -1.000000000000000000 ) ) ;
#25 = VECTOR ( 'NONE', #320, 1000.000000000000000 ) ;
#26 = EDGE_CURVE ( 'NONE', #127, #350, #80, .T. ) ;
#27 = EDGE_CURVE ( 'NONE', #276, #393, #311, .T. ) ;
#28 = ORIENTED_EDGE ( 'NONE', *, *, #112, .F. ) ;
#29 = VECTOR ( 'NONE', #279, 1000.000000000000114 ) ;
#30 = CYLINDRICAL_SURFACE ( 'NONE', #282, 6.000000000000000000 ) ;
#31 = VECTOR ( 'NONE', #378, 1000.000000000000000 ) ;
#32 = VECTOR ( 'NONE', #42, 1000.000000000000000 ) ;
#33 = SURFACE_STYLE_USAGE ( .BOTH. , #20 ) ;
#34 = LINE ( 'NONE', #331, #16 ) ;
#35 = FACE_OUTER_BOUND ( 'NONE', #55, .T. ) ;
#36 = ORIENTED_EDGE ( 'NONE', *, *, #206, .T. ) ;
#37 = VECTOR ( 'NONE', #167, 1000.000000000000000 ) ;
#38 = CARTESIAN_POINT ( 'NONE',  ( 20.25735931288071967, -3.242640687119276333, 0.0000000000000000000 ) ) ;
#39 = CARTESIAN_POINT ( 'NONE',  ( 2.914230647672876409E-15, -5.000000000000000888, -4.911804920760110882 ) ) ;
#40 = APPLICATION_CONTEXT ( 'automotive_design' ) ;
#41 = ORIENTED_EDGE ( 'NONE', *, *, #228, .F. ) ;
#42 = DIRECTION ( 'NONE',  ( 1.000000000000000000, 0.0000000000000000000, 0.0000000000000000000 ) ) ;
#43 = LINE ( 'NONE', #336, #238 ) ;
#44 = VERTEX_POINT ( 'NONE', #291 ) ;
#45 = FACE_OUTER_BOUND ( 'NONE', #141, .T. ) ;
#46 = VERTEX_POINT ( 'NONE', #269 ) ;
#47 = VECTOR ( 'NONE', #99, 1000.000000000000000 ) ;
#48 = ORIENTED_EDGE ( 'NONE', *, *, #258, .T. ) ;
#49 = PRODUCT ( 'CUT-153-02-08', 'CUT-153-02-08', '', ( #250 ) ) ;
#50 = ORIENTED_EDGE ( 'NONE', *, *, #61, .T. ) ;
#51 = PLANE ( 'NONE',  #159 ) ;
#52 = VERTEX_POINT ( 'NONE', #340 ) ;
#53 = ADVANCED_FACE ( 'NONE', ( #35 ), #160, .T. ) ;
#54 = ADVANCED_FACE ( 'NONE', ( #234 ), #313, .T. ) ;
#55 = EDGE_LOOP ( 'NONE', ( #198, #373, #84, #129 ) ) ;
#56 = VERTEX_POINT ( 'NONE', #186 ) ;
#57 = LINE ( 'NONE', #144, #47 ) ;
#58 = EDGE_LOOP ( 'NONE', ( #322, #187, #7, #254, #368, #98 ) ) ;
#59 = PRESENTATION_LAYER_ASSIGNMENT (  '', '', ( #397 ) ) ;
#60 = ORIENTED_EDGE ( 'NONE', *, *, #61, .F. ) ;
#61 = EDGE_CURVE ( 'NONE', #202, #235, #34, .T. ) ;
#62 = ORIENTED_EDGE ( 'NONE', *, *, #209, .T. ) ;
#63 = ORIENTED_EDGE ( 'NONE', *, *, #312, .F. ) ;
#64 = ORIENTED_EDGE ( 'NONE', *, *, #233, .F. ) ;
#65 = PRODUCT_DEFINITION_SHAPE ( 'NONE', 'NONE',  #303 ) ;
#66 = LINE ( 'NONE', #248, #177 ) ;
#67 = LINE ( 'NONE', #155, #212 ) ;
#68 = CARTESIAN_POINT ( 'NONE',  ( 20.25735931288071967, -3.242640687119276333, -20.00000000000000000 ) ) ;
#69 = CARTESIAN_POINT ( 'NONE',  ( 125.0000000000000000, -25.00000000000000000, -20.00000000000000000 ) ) ;
#70 = DIRECTION ( 'NONE',  ( 1.000000000000000000, 0.0000000000000000000, 0.0000000000000000000 ) ) ;
#71 = DIRECTION ( 'NONE',  ( -1.000000000000000000, 1.161518853562087414E-16, 0.0000000000000000000 ) ) ;
#72 = ORIENTED_EDGE ( 'NONE', *, *, #233, .T. ) ;
#73 = ORIENTED_EDGE ( 'NONE', *, *, #104, .F. ) ;
#74 = VECTOR ( 'NONE', #220, 1000.000000000000000 ) ;
#75 = APPLICATION_CONTEXT ( 'automotive_design' ) ;
#76 = PRODUCT_RELATED_PRODUCT_CATEGORY ( 'part', '', ( #49 ) ) ;
#77 = SURFACE_SIDE_STYLE ('',( #154 ) ) ;
#78 = CARTESIAN_POINT ( 'NONE',  ( 3.000000000000002665, -8.445896366636842956, 5.551115123125782702E-14 ) ) ;
#79 = DIRECTION ( 'NONE',  ( 0.0000000000000000000, 1.000000000000000000, 0.0000000000000000000 ) ) ;
#80 = LINE ( 'NONE', #81, #119 ) ;
#81 = CARTESIAN_POINT ( 'NONE',  ( 3.469446951953614189E-15, -8.445896366636842956, 5.551115123125782702E-14 ) ) ;
#82 = ORIENTED_EDGE ( 'NONE', *, *, #302, .T. ) ;
#83 = LINE ( 'NONE', #93, #74 ) ;
#84 = ORIENTED_EDGE ( 'NONE', *, *, #115, .F. ) ;
#85 = MECHANICAL_DESIGN_GEOMETRIC_PRESENTATION_REPRESENTATION (  '', ( #397 ), #108 ) ;
#86 = EDGE_LOOP ( 'NONE', ( #36, #260, #183, #402 ) ) ;
#87 = EDGE_CURVE ( 'NONE', #276, #44, #284, .T. ) ;
#88 = DIRECTION ( 'NONE',  ( 1.000000000000000000, 0.0000000000000000000, 0.0000000000000000000 ) ) ;
#89 = DIRECTION ( 'NONE',  ( -1.161518853562087414E-16, -1.000000000000000000, 8.677831656748562794E-15 ) ) ;
#90 = AXIS2_PLACEMENT_3D ( 'NONE', #241, #145, #2 ) ;
#91 = CARTESIAN_POINT ( 'NONE',  ( 0.0000000000000000000, -25.00000000000000000, -20.00000000000000000 ) ) ;
#92 = ORIENTED_EDGE ( 'NONE', *, *, #209, .F. ) ;
#93 = CARTESIAN_POINT ( 'NONE',  ( 125.0000000000000000, -25.00000000000000000, 0.0000000000000000000 ) ) ;
#94 = CLOSED_SHELL ( 'NONE', ( #185, #306, #171, #54, #103, #136, #53, #298, #243, #121, #164, #319 ) ) ;
#95 = EDGE_LOOP ( 'NONE', ( #221, #382, #28, #41 ) ) ;
#96 = AXIS2_PLACEMENT_3D ( 'NONE', #296, #376, #337 ) ;
#97 = VECTOR ( 'NONE', #390, 1000.000000000000000 ) ;
#98 = ORIENTED_EDGE ( 'NONE', *, *, #344, .T. ) ;
#99 = DIRECTION ( 'NONE',  ( 0.0000000000000000000, 0.0000000000000000000, 1.000000000000000000 ) ) ;
#100 = DIRECTION ( 'NONE',  ( 0.0000000000000000000, 0.0000000000000000000, 1.000000000000000000 ) ) ;
#101 = EDGE_LOOP ( 'NONE', ( #314, #72, #222, #174 ) ) ;
#102 = CARTESIAN_POINT ( 'NONE',  ( 0.0000000000000000000, 0.0000000000000000000, 0.0000000000000000000 ) ) ;
#103 = ADVANCED_FACE ( 'NONE', ( #45 ), #51, .T. ) ;
#104 = EDGE_CURVE ( 'NONE', #156, #327, #289, .T. ) ;
#105 = ORIENTED_EDGE ( 'NONE', *, *, #365, .T. ) ;
#106 = ORIENTED_EDGE ( 'NONE', *, *, #165, .T. ) ;
#107 =( NAMED_UNIT ( * ) PLANE_ANGLE_UNIT ( ) SI_UNIT ( $, .RADIAN. ) );
#108 =( GEOMETRIC_REPRESENTATION_CONTEXT ( 3 ) GLOBAL_UNCERTAINTY_ASSIGNED_CONTEXT ( ( #126 ) ) GLOBAL_UNIT_ASSIGNED_CONTEXT ( ( #110, #107, #124 ) ) REPRESENTATION_CONTEXT ( 'NONE', 'WORKASPACE' ) );
#109 = LINE ( 'NONE', #257, #37 ) ;
#110 =( LENGTH_UNIT ( ) NAMED_UNIT ( * ) SI_UNIT ( .MILLI., .METRE. ) );
#111 = PLANE ( 'NONE',  #90 ) ;
#112 = EDGE_CURVE ( 'NONE', #46, #281, #207, .T. ) ;
#113 = VECTOR ( 'NONE', #339, 1000.000000000000000 ) ;
#114 = DIRECTION ( 'NONE',  ( 0.0000000000000000000, 0.0000000000000000000, -1.000000000000000000 ) ) ;
#115 = EDGE_CURVE ( 'NONE', #393, #56, #261, .T. ) ;
#116 = COLOUR_RGB ( '',0.9372549019607843146, 0.9607843137254902244, 1.000000000000000000 ) ;
#117 = CARTESIAN_POINT ( 'NONE',  ( 2.449293598294706513E-15, -5.000000000000000000, -20.00000000000000000 ) ) ;
#118 = CARTESIAN_POINT ( 'NONE',  ( 3.000000000000002220, -5.000000000000016875, -4.911804920760122428 ) ) ;
#119 = VECTOR ( 'NONE', #89, 1000.000000000000000 ) ;
#120 = EDGE_LOOP ( 'NONE', ( #274, #367, #48, #50 ) ) ;
#121 = ADVANCED_FACE ( 'NONE', ( #301 ), #325, .F. ) ;
#122 = DIRECTION ( 'NONE',  ( 0.0000000000000000000, 1.000000000000000000, 0.0000000000000000000 ) ) ;
#123 = DIRECTION ( 'NONE',  ( -1.000000000000000000, 1.161518853562087414E-16, 1.232595164407830125E-32 ) ) ;
#124 =( NAMED_UNIT ( * ) SI_UNIT ( $, .STERADIAN. ) SOLID_ANGLE_UNIT ( ) );
#125 = PLANE ( 'NONE',  #360 ) ;
#126 = UNCERTAINTY_MEASURE_WITH_UNIT (LENGTH_MEASURE( 1.000000000000000082E-05 ), #110, 'distance_accuracy_value', 'NONE');
#127 = VERTEX_POINT ( 'NONE', #178 ) ;
#128 = CARTESIAN_POINT ( 'NONE',  ( 3.000000000000002665, -0.2199113894877525177, -1.564750842369094785 ) ) ;
#129 = ORIENTED_EDGE ( 'NONE', *, *, #312, .T. ) ;
#130 = CARTESIAN_POINT ( 'NONE',  ( 2.449293598294706513E-15, -5.000000000000000000, -20.00000000000000000 ) ) ;
#131 = PLANE ( 'NONE',  #176 ) ;
#132 = AXIS2_PLACEMENT_3D ( 'NONE', #351, #338, #318 ) ;
#133 = APPLICATION_PROTOCOL_DEFINITION ( 'draft international standard', 'automotive_design', 1998, #40 ) ;
#134 = DIRECTION ( 'NONE',  ( 0.0000000000000000000, 0.0000000000000000000, 1.000000000000000000 ) ) ;
#135 = CARTESIAN_POINT ( 'NONE',  ( 3.000000000000002665, 1.613292832658430598E-13, -1.387778780781445676E-14 ) ) ;
#136 = ADVANCED_FACE ( 'NONE', ( #189 ), #323, .T. ) ;
#137 = ORIENTED_EDGE ( 'NONE', *, *, #302, .F. ) ;
#138 = PLANE ( 'NONE',  #132 ) ;
#139 = ORIENTED_EDGE ( 'NONE', *, *, #87, .F. ) ;
#140 = CARTESIAN_POINT ( 'NONE',  ( 125.0000000000000000, 0.0000000000000000000, -20.00000000000000000 ) ) ;
#141 = EDGE_LOOP ( 'NONE', ( #5, #377, #375, #380 ) ) ;
#142 =( LENGTH_UNIT ( ) NAMED_UNIT ( * ) SI_UNIT ( .MILLI., .METRE. ) );
#143 = PLANE ( 'NONE',  #169 ) ;
#144 = CARTESIAN_POINT ( 'NONE',  ( 16.01471862576142868, -5.000000000000000000, 0.0000000000000000000 ) ) ;
#145 = DIRECTION ( 'NONE',  ( 1.000000000000000000, -1.161518853562087414E-16, 0.0000000000000000000 ) ) ;
#146 = DIRECTION ( 'NONE',  ( 1.616521806738838559E-17, 0.1391731009601240021, 0.9902680687415620353 ) ) ;
#147 = ORIENTED_EDGE ( 'NONE', *, *, #27, .T. ) ;
#148 = PRESENTATION_STYLE_ASSIGNMENT (( #190 ) ) ;
#149 = CARTESIAN_POINT ( 'NONE',  ( 3.000000000000002665, -7.499999999999902300, -2.999999999999954259 ) ) ;
#150 = PRESENTATION_LAYER_ASSIGNMENT (  '', '', ( #218 ) ) ;
#151 = SHAPE_DEFINITION_REPRESENTATION ( #65, #399 ) ;
#152 = DIRECTION ( 'NONE',  ( 0.0000000000000000000, 0.0000000000000000000, 1.000000000000000000 ) ) ;
#153 = CARTESIAN_POINT ( 'NONE',  ( 2.999999999999999556, -5.000000000000021316, -5.999999999999965361 ) ) ;
#154 = SURFACE_STYLE_FILL_AREA ( #10 ) ;
#155 = CARTESIAN_POINT ( 'NONE',  ( 18.50000000000000355, -5.000000000000000000, 0.0000000000000000000 ) ) ;
#156 = VERTEX_POINT ( 'NONE', #294 ) ;
#157 = EDGE_LOOP ( 'NONE', ( #280, #230, #361, #191, #215, #219, #268, #92, #23 ) ) ;
#158 = CARTESIAN_POINT ( 'NONE',  ( 23.49999999999998579, 0.0000000000000000000, 0.0000000000000000000 ) ) ;
#159 = AXIS2_PLACEMENT_3D ( 'NONE', #149, #240, #359 ) ;
#160 = PLANE ( 'NONE',  #252 ) ;
#161 = CARTESIAN_POINT ( 'NONE',  ( 125.0000000000000000, -20.00000000000000000, 0.0000000000000000000 ) ) ;
#162 = ORIENTED_EDGE ( 'NONE', *, *, #258, .F. ) ;
#163 = LINE ( 'NONE', #255, #328 ) ;
#164 = ADVANCED_FACE ( 'NONE', ( #224 ), #30, .F. ) ;
#165 = EDGE_CURVE ( 'NONE', #56, #179, #305, .T. ) ;
#166 = MECHANICAL_DESIGN_GEOMETRIC_PRESENTATION_REPRESENTATION (  '', ( #218 ), #345 ) ;
#167 = DIRECTION ( 'NONE',  ( 1.000000000000000000, 0.0000000000000000000, 0.0000000000000000000 ) ) ;
#168 = DIRECTION ( 'NONE',  ( 0.7071067811865463515, 0.7071067811865487940, 0.0000000000000000000 ) ) ;
#169 = AXIS2_PLACEMENT_3D ( 'NONE', #352, #122, #24 ) ;
#170 = DIRECTION ( 'NONE',  ( 9.514605433755934095E-17, 0.8191520442889946851, 0.5735764363510417185 ) ) ;
#171 = ADVANCED_FACE ( 'NONE', ( #366 ), #363, .T. ) ;
#172 = AXIS2_PLACEMENT_3D ( 'NONE', #15, #201, #4 ) ;
#173 = DIRECTION ( 'NONE',  ( 1.616521806738838867E-17, 0.1391731009601240021, 0.9902680687415620353 ) ) ;
#174 = ORIENTED_EDGE ( 'NONE', *, *, #247, .T. ) ;
#175 = VECTOR ( 'NONE', #271, 1000.000000000000000 ) ;
#176 = AXIS2_PLACEMENT_3D ( 'NONE', #357, #332, #205 ) ;
#177 = VECTOR ( 'NONE', #146, 1000.000000000000227 ) ;
#178 = CARTESIAN_POINT ( 'NONE',  ( 3.469446951953614189E-15, 1.613292832658430598E-13, -1.387778780781445676E-14 ) ) ;
#179 = VERTEX_POINT ( 'NONE', #182 ) ;
#180 = AXIS2_PLACEMENT_3D ( 'NONE', #288, #134, #381 ) ;
#181 = DIRECTION ( 'NONE',  ( 0.0000000000000000000, 0.0000000000000000000, 1.000000000000000000 ) ) ;
#182 = CARTESIAN_POINT ( 'NONE',  ( 125.0000000000000000, 0.0000000000000000000, 0.0000000000000000000 ) ) ;
#183 = ORIENTED_EDGE ( 'NONE', *, *, #19, .F. ) ;
#184 = CIRCLE ( 'NONE', #180, 6.000000000000001776 ) ;
#185 = ADVANCED_FACE ( 'NONE', ( #278 ), #111, .F. ) ;
#186 = CARTESIAN_POINT ( 'NONE',  ( 125.0000000000000000, 0.0000000000000000000, -20.00000000000000000 ) ) ;
#187 = ORIENTED_EDGE ( 'NONE', *, *, #206, .F. ) ;
#188 = CARTESIAN_POINT ( 'NONE',  ( 23.49999999999998579, 0.0000000000000000000, 0.0000000000000000000 ) ) ;
#189 = FACE_OUTER_BOUND ( 'NONE', #18, .T. ) ;
#190 = SURFACE_STYLE_USAGE ( .BOTH. , #77 ) ;
#191 = ORIENTED_EDGE ( 'NONE', *, *, #26, .T. ) ;
#192 = DIRECTION ( 'NONE',  ( -0.0000000000000000000, -0.0000000000000000000, -1.000000000000000000 ) ) ;
#193 = LINE ( 'NONE', #300, #199 ) ;
#194 = CARTESIAN_POINT ( 'NONE',  ( 3.000000000000002665, 1.613292832658430598E-13, -1.387778780781445676E-14 ) ) ;
#195 = CARTESIAN_POINT ( 'NONE',  ( 3.000000000000002665, -0.2199113894877525177, -1.564750842369094785 ) ) ;
#196 = CARTESIAN_POINT ( 'NONE',  ( 23.49999999999998579, 0.0000000000000000000, -20.00000000000000000 ) ) ;
#197 = EDGE_CURVE ( 'NONE', #179, #235, #83, .T. ) ;
#198 = ORIENTED_EDGE ( 'NONE', *, *, #353, .T. ) ;
#199 = VECTOR ( 'NONE', #385, 1000.000000000000000 ) ;
#200 = AXIS2_PLACEMENT_3D ( 'NONE', #217, #8, #173 ) ;
#201 = DIRECTION ( 'NONE',  ( 0.0000000000000000000, 0.0000000000000000000, 1.000000000000000000 ) ) ;
#202 = VERTEX_POINT ( 'NONE', #264 ) ;
#203 =( LENGTH_UNIT ( ) NAMED_UNIT ( * ) SI_UNIT ( .MILLI., .METRE. ) );
#204 = LINE ( 'NONE', #117, #263 ) ;
#205 = DIRECTION ( 'NONE',  ( 0.0000000000000000000, 0.0000000000000000000, -1.000000000000000000 ) ) ;
#206 = EDGE_CURVE ( 'NONE', #281, #127, #66, .T. ) ;
#207 = LINE ( 'NONE', #128, #113 ) ;
#208 = PRESENTATION_STYLE_ASSIGNMENT (( #33 ) ) ;
#209 = EDGE_CURVE ( 'NONE', #401, #251, #67, .T. ) ;
#210 = SURFACE_STYLE_FILL_AREA ( #346 ) ;
#211 = LINE ( 'NONE', #78, #31 ) ;
#212 = VECTOR ( 'NONE', #168, 999.9999999999998863 ) ;
#213 = LINE ( 'NONE', #236, #326 ) ;
#214 = DIRECTION ( 'NONE',  ( 9.514605433755934095E-17, 0.8191520442889946851, 0.5735764363510417185 ) ) ;
#215 = ORIENTED_EDGE ( 'NONE', *, *, #329, .T. ) ;
#216 = LINE ( 'NONE', #1, #25 ) ;
#217 = CARTESIAN_POINT ( 'NONE',  ( 3.000000000000002665, 1.613292832658430598E-13, -1.387778780781445676E-14 ) ) ;
#218 = STYLED_ITEM ( 'NONE', ( #208 ), #399 ) ;
#219 = ORIENTED_EDGE ( 'NONE', *, *, #197, .F. ) ;
#220 = DIRECTION ( 'NONE',  ( 0.0000000000000000000, -1.000000000000000000, 0.0000000000000000000 ) ) ;
#221 = ORIENTED_EDGE ( 'NONE', *, *, #104, .T. ) ;
#222 = ORIENTED_EDGE ( 'NONE', *, *, #358, .T. ) ;
#223 = UNCERTAINTY_MEASURE_WITH_UNIT (LENGTH_MEASURE( 1.000000000000000082E-05 ), #203, 'distance_accuracy_value', 'NONE');
#224 = FACE_OUTER_BOUND ( 'NONE', #101, .T. ) ;
#225 = CARTESIAN_POINT ( 'NONE',  ( 3.000000000000002665, -8.445896366636842956, 5.551115123125782702E-14 ) ) ;
#226 = AXIS2_PLACEMENT_3D ( 'NONE', #102, #152, #272 ) ;
#227 = VECTOR ( 'NONE', #88, 1000.000000000000000 ) ;
#228 = EDGE_CURVE ( 'NONE', #156, #46, #270, .T. ) ;
#229 = ORIENTED_EDGE ( 'NONE', *, *, #115, .T. ) ;
#230 = ORIENTED_EDGE ( 'NONE', *, *, #297, .F. ) ;
#231 =( NAMED_UNIT ( * ) SI_UNIT ( $, .STERADIAN. ) SOLID_ANGLE_UNIT ( ) );
#232 = DIRECTION ( 'NONE',  ( -0.0000000000000000000, -0.0000000000000000000, -1.000000000000000000 ) ) ;
#233 = EDGE_CURVE ( 'NONE', #44, #347, #57, .T. ) ;
#234 = FACE_OUTER_BOUND ( 'NONE', #95, .T. ) ;
#235 = VERTEX_POINT ( 'NONE', #161 ) ;
#236 = CARTESIAN_POINT ( 'NONE',  ( 3.000000000000002665, 1.613292832658430598E-13, -1.387778780781445676E-14 ) ) ;
#237 = VECTOR ( 'NONE', #71, 1000.000000000000000 ) ;
#238 = VECTOR ( 'NONE', #232, 1000.000000000000000 ) ;
#239 = APPLICATION_PROTOCOL_DEFINITION ( 'draft international standard', 'automotive_design', 1998, #75 ) ;
#240 = DIRECTION ( 'NONE',  ( 1.000000000000000000, -1.161518853562087414E-16, 0.0000000000000000000 ) ) ;
#241 = CARTESIAN_POINT ( 'NONE',  ( 3.469446951953614189E-15, -7.499999999999902300, -2.999999999999954259 ) ) ;
#242 = CARTESIAN_POINT ( 'NONE',  ( 2.449293598294706513E-15, -5.000000000000000000, 0.0000000000000000000 ) ) ;
#243 = ADVANCED_FACE ( 'NONE', ( #244 ), #131, .T. ) ;
#244 = FACE_OUTER_BOUND ( 'NONE', #283, .T. ) ;
#245 = PRODUCT_DEFINITION_CONTEXT ( 'detailed design', #75, 'design' ) ;
#246 = CARTESIAN_POINT ( 'NONE',  ( 23.49999999999998579, 0.0000000000000000000, -20.00000000000000000 ) ) ;
#247 = EDGE_CURVE ( 'NONE', #401, #276, #43, .T. ) ;
#248 = CARTESIAN_POINT ( 'NONE',  ( 3.469446951953614189E-15, 1.613292832658430598E-13, -1.387778780781445676E-14 ) ) ;
#249 = UNCERTAINTY_MEASURE_WITH_UNIT (LENGTH_MEASURE( 1.000000000000000082E-05 ), #142, 'distance_accuracy_value', 'NONE');
#250 = PRODUCT_CONTEXT ( 'NONE', #40, 'mechanical' ) ;
#251 = VERTEX_POINT ( 'NONE', #188 ) ;
#252 = AXIS2_PLACEMENT_3D ( 'NONE', #196, #79, #114 ) ;
#253 = DIRECTION ( 'NONE',  ( -1.161518853562087414E-16, -1.000000000000000000, 8.677831656748562794E-15 ) ) ;
#254 = ORIENTED_EDGE ( 'NONE', *, *, #341, .F. ) ;
#255 = CARTESIAN_POINT ( 'NONE',  ( 3.469446951953614189E-15, -0.2199113894877525177, -1.564750842369094785 ) ) ;
#256 = CARTESIAN_POINT ( 'NONE',  ( 18.50000000000000355, -5.000000000000000000, -20.00000000000000000 ) ) ;
#257 = CARTESIAN_POINT ( 'NONE',  ( 6.123233995736767268E-16, -20.00000000000000000, -20.00000000000000000 ) ) ;
#258 = EDGE_CURVE ( 'NONE', #52, #202, #109, .T. ) ;
#259 = DIRECTION ( 'NONE',  ( 0.7071067811865463515, 0.7071067811865487940, 0.0000000000000000000 ) ) ;
#260 = ORIENTED_EDGE ( 'NONE', *, *, #265, .F. ) ;
#261 = LINE ( 'NONE', #246, #227 ) ;
#262 = DIRECTION ( 'NONE',  ( 1.616521806738838559E-17, 0.1391731009601240021, 0.9902680687415620353 ) ) ;
#263 = VECTOR ( 'NONE', #398, 1000.000000000000000 ) ;
#264 = CARTESIAN_POINT ( 'NONE',  ( 125.0000000000000000, -20.00000000000000000, -20.00000000000000000 ) ) ;
#265 = EDGE_CURVE ( 'NONE', #304, #127, #364, .T. ) ;
#266 = EDGE_CURVE ( 'NONE', #267, #347, #273, .T. ) ;
#267 = VERTEX_POINT ( 'NONE', #342 ) ;
#268 = ORIENTED_EDGE ( 'NONE', *, *, #353, .F. ) ;
#269 = CARTESIAN_POINT ( 'NONE',  ( 3.000000000000002665, -0.2199113894877525177, -1.564750842369094785 ) ) ;
#270 = LINE ( 'NONE', #299, #29 ) ;
#271 = DIRECTION ( 'NONE',  ( 1.000000000000000000, 0.0000000000000000000, 0.0000000000000000000 ) ) ;
#272 = DIRECTION ( 'NONE',  ( 1.000000000000000000, 0.0000000000000000000, 0.0000000000000000000 ) ) ;
#273 = LINE ( 'NONE', #242, #32 ) ;
#274 = ORIENTED_EDGE ( 'NONE', *, *, #329, .F. ) ;
#275 = VECTOR ( 'NONE', #123, 1000.000000000000000 ) ;
#276 = VERTEX_POINT ( 'NONE', #68 ) ;
#277 = PRODUCT_DEFINITION_FORMATION_WITH_SPECIFIED_SOURCE ( 'ANY', '', #49, .NOT_KNOWN. ) ;
#278 = FACE_OUTER_BOUND ( 'NONE', #58, .T. ) ;
#279 = DIRECTION ( 'NONE',  ( 9.514605433755934095E-17, 0.8191520442889946851, 0.5735764363510417185 ) ) ;
#280 = ORIENTED_EDGE ( 'NONE', *, *, #266, .F. ) ;
#281 = VERTEX_POINT ( 'NONE', #315 ) ;
#282 = AXIS2_PLACEMENT_3D ( 'NONE', #374, #356, #22 ) ;
#283 = EDGE_LOOP ( 'NONE', ( #73, #290, #317, #64, #137, #6 ) ) ;
#284 = CIRCLE ( 'NONE', #348, 6.000000000000001776 ) ;
#285 = ORIENTED_EDGE ( 'NONE', *, *, #247, .F. ) ;
#286 = DIRECTION ( 'NONE',  ( 1.007946507735138592E-30, 8.677831656748562794E-15, 1.000000000000000000 ) ) ;
#287 = ORIENTED_EDGE ( 'NONE', *, *, #197, .T. ) ;
#288 = CARTESIAN_POINT ( 'NONE',  ( 16.01471862576142868, 1.000000000000000000, 0.0000000000000000000 ) ) ;
#289 = LINE ( 'NONE', #118, #275 ) ;
#290 = ORIENTED_EDGE ( 'NONE', *, *, #379, .T. ) ;
#291 = CARTESIAN_POINT ( 'NONE',  ( 16.01471862576142868, -5.000000000000000000, -20.00000000000000000 ) ) ;
#292 = FILL_AREA_STYLE_COLOUR ( '', #321 ) ;
#293 = VECTOR ( 'NONE', #333, 1000.000000000000000 ) ;
#294 = CARTESIAN_POINT ( 'NONE',  ( 2.999999999999999556, -5.000000000000021316, -4.911804920760110882 ) ) ;
#295 = VERTEX_POINT ( 'NONE', #130 ) ;
#296 = CARTESIAN_POINT ( 'NONE',  ( 125.0000000000000000, -25.00000000000000000, -20.00000000000000000 ) ) ;
#297 = EDGE_CURVE ( 'NONE', #304, #267, #211, .T. ) ;
#298 = ADVANCED_FACE ( 'NONE', ( #400 ), #138, .T. ) ;
#299 = CARTESIAN_POINT ( 'NONE',  ( 3.000000000000002665, -0.2199113894877525177, -1.564750842369094785 ) ) ;
#300 = CARTESIAN_POINT ( 'NONE',  ( 2.449293598294706513E-15, -5.000000000000000000, -20.00000000000000000 ) ) ;
#301 = FACE_OUTER_BOUND ( 'NONE', #21, .T. ) ;
#302 = EDGE_CURVE ( 'NONE', #295, #44, #204, .T. ) ;
#303 = PRODUCT_DEFINITION ( 'UNKNOWN', '', #277, #245 ) ;
#304 = VERTEX_POINT ( 'NONE', #135 ) ;
#305 = LINE ( 'NONE', #140, #293 ) ;
#306 = ADVANCED_FACE ( 'NONE', ( #395 ), #125, .T. ) ;
#307 = CARTESIAN_POINT ( 'NONE',  ( 6.123233995736767268E-16, -20.00000000000000000, -20.00000000000000000 ) ) ;
#308 = CARTESIAN_POINT ( 'NONE',  ( 6.123233995736767268E-16, -20.00000000000000000, 0.0000000000000000000 ) ) ;
#309 = ORIENTED_EDGE ( 'NONE', *, *, #365, .F. ) ;
#310 = FILL_AREA_STYLE_COLOUR ( '', #116 ) ;
#311 = LINE ( 'NONE', #256, #330 ) ;
#312 = EDGE_CURVE ( 'NONE', #393, #251, #216, .T. ) ;
#313 = PLANE ( 'NONE',  #389 ) ;
#314 = ORIENTED_EDGE ( 'NONE', *, *, #87, .T. ) ;
#315 = CARTESIAN_POINT ( 'NONE',  ( 3.469446951953614189E-15, -0.2199113894877525177, -1.564750842369094785 ) ) ;
#316 = CARTESIAN_POINT ( 'NONE',  ( 16.01471862576142868, 1.000000000000000000, -20.00000000000000000 ) ) ;
#317 = ORIENTED_EDGE ( 'NONE', *, *, #266, .T. ) ;
#318 = DIRECTION ( 'NONE',  ( 0.7071067811865463515, 0.7071067811865487940, 0.0000000000000000000 ) ) ;
#319 = ADVANCED_FACE ( 'NONE', ( #13 ), #143, .F. ) ;
#320 = DIRECTION ( 'NONE',  ( 0.0000000000000000000, 0.0000000000000000000, 1.000000000000000000 ) ) ;
#321 = COLOUR_RGB ( '',0.9372549019607843146, 0.9607843137254902244, 1.000000000000000000 ) ;
#322 = ORIENTED_EDGE ( 'NONE', *, *, #26, .F. ) ;
#323 = PLANE ( 'NONE',  #96 ) ;
#324 =( NAMED_UNIT ( * ) PLANE_ANGLE_UNIT ( ) SI_UNIT ( $, .RADIAN. ) );
#325 = PLANE ( 'NONE',  #172 ) ;
#326 = VECTOR ( 'NONE', #262, 1000.000000000000227 ) ;
#327 = VERTEX_POINT ( 'NONE', #39 ) ;
#328 = VECTOR ( 'NONE', #170, 1000.000000000000114 ) ;
#329 = EDGE_CURVE ( 'NONE', #350, #235, #384, .T. ) ;
#330 = VECTOR ( 'NONE', #259, 999.9999999999998863 ) ;
#331 = CARTESIAN_POINT ( 'NONE',  ( 125.0000000000000000, -20.00000000000000000, -20.00000000000000000 ) ) ;
#332 = DIRECTION ( 'NONE',  ( 0.0000000000000000000, 1.000000000000000000, 0.0000000000000000000 ) ) ;
#333 = DIRECTION ( 'NONE',  ( 0.0000000000000000000, 0.0000000000000000000, 1.000000000000000000 ) ) ;
#334 = EDGE_LOOP ( 'NONE', ( #62, #63, #394, #285 ) ) ;
#335 = DIRECTION ( 'NONE',  ( 0.0000000000000000000, 0.0000000000000000000, 1.000000000000000000 ) ) ;
#336 = CARTESIAN_POINT ( 'NONE',  ( 20.25735931288071967, -3.242640687119276333, -20.00000000000000000 ) ) ;
#337 = DIRECTION ( 'NONE',  ( 0.0000000000000000000, -0.0000000000000000000, -1.000000000000000000 ) ) ;
#338 = DIRECTION ( 'NONE',  ( -0.7071067811865487940, 0.7071067811865463515, 0.0000000000000000000 ) ) ;
#339 = DIRECTION ( 'NONE',  ( -1.000000000000000000, 1.161518853562087414E-16, 0.0000000000000000000 ) ) ;
#340 = CARTESIAN_POINT ( 'NONE',  ( 6.123233995736767268E-16, -20.00000000000000000, -20.00000000000000000 ) ) ;
#341 = EDGE_CURVE ( 'NONE', #295, #327, #193, .T. ) ;
#342 = CARTESIAN_POINT ( 'NONE',  ( 3.000000000000003109, -5.000000000000000000, 2.560824265498177030E-14 ) ) ;
#343 = VECTOR ( 'NONE', #100, 1000.000000000000000 ) ;
#344 = EDGE_CURVE ( 'NONE', #52, #350, #362, .T. ) ;
#345 =( GEOMETRIC_REPRESENTATION_CONTEXT ( 3 ) GLOBAL_UNCERTAINTY_ASSIGNED_CONTEXT ( ( #249 ) ) GLOBAL_UNIT_ASSIGNED_CONTEXT ( ( #142, #12, #231 ) ) REPRESENTATION_CONTEXT ( 'NONE', 'WORKASPACE' ) );
#346 = FILL_AREA_STYLE ('',( #310 ) ) ;
#347 = VERTEX_POINT ( 'NONE', #388 ) ;
#348 = AXIS2_PLACEMENT_3D ( 'NONE', #316, #192, #369 ) ;
#349 = LINE ( 'NONE', #153, #343 ) ;
#350 = VERTEX_POINT ( 'NONE', #370 ) ;
#351 = CARTESIAN_POINT ( 'NONE',  ( 18.50000000000000355, -5.000000000000000000, -20.00000000000000000 ) ) ;
#352 = CARTESIAN_POINT ( 'NONE',  ( 6.123233995736767268E-16, -20.00000000000000000, -20.00000000000000000 ) ) ;
#353 = EDGE_CURVE ( 'NONE', #251, #179, #354, .T. ) ;
#354 = LINE ( 'NONE', #158, #175 ) ;
#355 = LINE ( 'NONE', #69, #372 ) ;
#356 = DIRECTION ( 'NONE',  ( 0.0000000000000000000, 0.0000000000000000000, -1.000000000000000000 ) ) ;
#357 = CARTESIAN_POINT ( 'NONE',  ( 2.449293598294706513E-15, -5.000000000000000000, -20.00000000000000000 ) ) ;
#358 = EDGE_CURVE ( 'NONE', #347, #401, #184, .T. ) ;
#359 = DIRECTION ( 'NONE',  ( 1.161518853562087414E-16, 1.000000000000000000, -2.721450164542462693E-15 ) ) ;
#360 = AXIS2_PLACEMENT_3D ( 'NONE', #225, #286, #253 ) ;
#361 = ORIENTED_EDGE ( 'NONE', *, *, #265, .T. ) ;
#362 = LINE ( 'NONE', #307, #9 ) ;
#363 = PLANE ( 'NONE',  #200 ) ;
#364 = LINE ( 'NONE', #194, #237 ) ;
#365 = EDGE_CURVE ( 'NONE', #56, #202, #355, .T. ) ;
#366 = FACE_OUTER_BOUND ( 'NONE', #86, .T. ) ;
#367 = ORIENTED_EDGE ( 'NONE', *, *, #344, .F. ) ;
#368 = ORIENTED_EDGE ( 'NONE', *, *, #3, .F. ) ;
#369 = DIRECTION ( 'NONE',  ( 1.000000000000000000, 0.0000000000000000000, 0.0000000000000000000 ) ) ;
#370 = CARTESIAN_POINT ( 'NONE',  ( 6.123233995736767268E-16, -20.00000000000000000, 0.0000000000000000000 ) ) ;
#371 = LINE ( 'NONE', #91, #97 ) ;
#372 = VECTOR ( 'NONE', #387, 1000.000000000000000 ) ;
#373 = ORIENTED_EDGE ( 'NONE', *, *, #165, .F. ) ;
#374 = CARTESIAN_POINT ( 'NONE',  ( 16.01471862576142868, 1.000000000000000000, -20.00000000000000000 ) ) ;
#375 = ORIENTED_EDGE ( 'NONE', *, *, #19, .T. ) ;
#376 = DIRECTION ( 'NONE',  ( 1.000000000000000000, 0.0000000000000000000, 0.0000000000000000000 ) ) ;
#377 = ORIENTED_EDGE ( 'NONE', *, *, #228, .T. ) ;
#378 = DIRECTION ( 'NONE',  ( -1.161518853562087414E-16, -1.000000000000000000, 8.677831656748562794E-15 ) ) ;
#379 = EDGE_CURVE ( 'NONE', #156, #267, #349, .T. ) ;
#380 = ORIENTED_EDGE ( 'NONE', *, *, #297, .T. ) ;
#381 = DIRECTION ( 'NONE',  ( 1.000000000000000000, 9.035018104045866996E-16, 0.0000000000000000000 ) ) ;
#382 = ORIENTED_EDGE ( 'NONE', *, *, #391, .T. ) ;
#383 =( GEOMETRIC_REPRESENTATION_CONTEXT ( 3 ) GLOBAL_UNCERTAINTY_ASSIGNED_CONTEXT ( ( #223 ) ) GLOBAL_UNIT_ASSIGNED_CONTEXT ( ( #203, #324, #396 ) ) REPRESENTATION_CONTEXT ( 'NONE', 'WORKASPACE' ) );
#384 = LINE ( 'NONE', #308, #11 ) ;
#385 = DIRECTION ( 'NONE',  ( 0.0000000000000000000, 0.0000000000000000000, 1.000000000000000000 ) ) ;
#386 = DIRECTION ( 'NONE',  ( 6.662198447806896522E-17, 0.5735764363510418296, -0.8191520442889947962 ) ) ;
#387 = DIRECTION ( 'NONE',  ( 0.0000000000000000000, -1.000000000000000000, 0.0000000000000000000 ) ) ;
#388 = CARTESIAN_POINT ( 'NONE',  ( 16.01471862576142868, -5.000000000000000000, 0.0000000000000000000 ) ) ;
#389 = AXIS2_PLACEMENT_3D ( 'NONE', #195, #386, #214 ) ;
#390 = DIRECTION ( 'NONE',  ( 1.224646799147353207E-16, 1.000000000000000000, 0.0000000000000000000 ) ) ;
#391 = EDGE_CURVE ( 'NONE', #327, #281, #163, .T. ) ;
#392 = MANIFOLD_SOLID_BREP ( 'Spiegeln1', #94 ) ;
#393 = VERTEX_POINT ( 'NONE', #14 ) ;
#394 = ORIENTED_EDGE ( 'NONE', *, *, #27, .F. ) ;
#395 = FACE_OUTER_BOUND ( 'NONE', #157, .T. ) ;
#396 =( NAMED_UNIT ( * ) SI_UNIT ( $, .STERADIAN. ) SOLID_ANGLE_UNIT ( ) );
#397 = STYLED_ITEM ( 'NONE', ( #148 ), #392 ) ;
#398 = DIRECTION ( 'NONE',  ( 1.000000000000000000, 0.0000000000000000000, 0.0000000000000000000 ) ) ;
#399 = ADVANCED_BREP_SHAPE_REPRESENTATION ( 'CUT-153-02-08', ( #392, #226 ), #383 ) ;
#400 = FACE_OUTER_BOUND ( 'NONE', #334, .T. ) ;
#401 = VERTEX_POINT ( 'NONE', #38 ) ;
#402 = ORIENTED_EDGE ( 'NONE', *, *, #112, .T. ) ;
ENDSEC;
END-ISO-10303-21;
