ISO-10303-21;
HEADER;
FILE_DESCRIPTION (( 'STEP AP214' ),
    '1' );
FILE_NAME ('CUT-153-02-25.step',
    '2019-06-05T11:21:01',
    ( '' ),
    ( '' ),
    'SwSTEP 2.0',
    'SolidWorks 2018',
    '' );
FILE_SCHEMA (( 'AUTOMOTIVE_DESIGN' ));
ENDSEC;

DATA;
#1 = ORIENTED_EDGE ( 'NONE', *, *, #82, .F. ) ;
#2 = FACE_OUTER_BOUND ( 'NONE', #384, .T. ) ;
#3 = VERTEX_POINT ( 'NONE', #265 ) ;
#4 = EDGE_LOOP ( 'NONE', ( #72, #275, #362, #341 ) ) ;
#5 = ADVANCED_FACE ( 'NONE', ( #111 ), #349, .F. ) ;
#6 = CARTESIAN_POINT ( 'NONE',  ( 3.000000000000002665, 8.445896366636842956, 5.551115123125782702E-14 ) ) ;
#7 = FACE_OUTER_BOUND ( 'NONE', #18, .T. ) ;
#8 = AXIS2_PLACEMENT_3D ( 'NONE', #162, #138, #219 ) ;
#9 = COLOUR_RGB ( '',0.9372549019607843146, 0.9607843137254902244, 1.000000000000000000 ) ;
#10 = ORIENTED_EDGE ( 'NONE', *, *, #355, .F. ) ;
#11 = ADVANCED_FACE ( 'NONE', ( #7 ), #156, .F. ) ;
#12 = ORIENTED_EDGE ( 'NONE', *, *, #204, .T. ) ;
#13 = EDGE_CURVE ( 'NONE', #173, #399, #118, .T. ) ;
#14 = EDGE_CURVE ( 'NONE', #120, #374, #300, .T. ) ;
#15 = ORIENTED_EDGE ( 'NONE', *, *, #337, .T. ) ;
#16 = ORIENTED_EDGE ( 'NONE', *, *, #204, .F. ) ;
#17 = VECTOR ( 'NONE', #371, 1000.000000000000000 ) ;
#18 = EDGE_LOOP ( 'NONE', ( #284, #250, #258, #189, #351, #251, #10 ) ) ;
#19 = PRODUCT_DEFINITION_SHAPE ( 'NONE', 'NONE',  #336 ) ;
#20 = DIRECTION ( 'NONE',  ( 1.000000000000000000, 1.161518853562087414E-16, 0.0000000000000000000 ) ) ;
#21 = EDGE_LOOP ( 'NONE', ( #48, #137, #363, #167 ) ) ;
#22 = UNCERTAINTY_MEASURE_WITH_UNIT (LENGTH_MEASURE( 1.000000000000000082E-05 ), #33, 'distance_accuracy_value', 'NONE');
#23 = CARTESIAN_POINT ( 'NONE',  ( 16.84314575050761675, 1.000000000000000000, -15.87500000000000000 ) ) ;
#24 = ORIENTED_EDGE ( 'NONE', *, *, #373, .F. ) ;
#25 = PRODUCT ( 'CUT-153-02-25', 'CUT-153-02-25', '', ( #123 ) ) ;
#26 = AXIS2_PLACEMENT_3D ( 'NONE', #47, #372, #109 ) ;
#27 = ADVANCED_FACE ( 'NONE', ( #356 ), #309, .T. ) ;
#28 = EDGE_CURVE ( 'NONE', #175, #141, #269, .T. ) ;
#29 = VECTOR ( 'NONE', #272, 1000.000000000000000 ) ;
#30 = ORIENTED_EDGE ( 'NONE', *, *, #180, .F. ) ;
#31 = ORIENTED_EDGE ( 'NONE', *, *, #247, .F. ) ;
#32 = PRESENTATION_STYLE_ASSIGNMENT (( #231 ) ) ;
#33 =( LENGTH_UNIT ( ) NAMED_UNIT ( * ) SI_UNIT ( .MILLI., .METRE. ) );
#34 = PRODUCT_RELATED_PRODUCT_CATEGORY ( 'part', '', ( #25 ) ) ;
#35 = CARTESIAN_POINT ( 'NONE',  ( 19.67157287525381193, 3.828427124746186294, 0.0000000000000000000 ) ) ;
#36 = CARTESIAN_POINT ( 'NONE',  ( 3.000000000000002665, 7.499999999999902300, -2.999999999999954259 ) ) ;
#37 = CARTESIAN_POINT ( 'NONE',  ( 125.0000000000000000, 0.0000000000000000000, 0.0000000000000000000 ) ) ;
#38 = APPLICATION_CONTEXT ( 'automotive_design' ) ;
#39 = SURFACE_STYLE_FILL_AREA ( #147 ) ;
#40 = LINE ( 'NONE', #230, #29 ) ;
#41 = CARTESIAN_POINT ( 'NONE',  ( 18.50000000000000355, 5.000000000000000000, -15.87500000000000000 ) ) ;
#42 = DIRECTION ( 'NONE',  ( 0.0000000000000000000, 0.0000000000000000000, 1.000000000000000000 ) ) ;
#43 = DIRECTION ( 'NONE',  ( -1.161518853562087414E-16, 1.000000000000000000, 8.677831656748562794E-15 ) ) ;
#44 = DIRECTION ( 'NONE',  ( -1.000000000000000000, -1.161518853562087414E-16, 0.0000000000000000000 ) ) ;
#45 = DIRECTION ( 'NONE',  ( 0.0000000000000000000, -0.0000000000000000000, -1.000000000000000000 ) ) ;
#46 = FACE_OUTER_BOUND ( 'NONE', #4, .T. ) ;
#47 = CARTESIAN_POINT ( 'NONE',  ( 23.49999999999998579, 0.0000000000000000000, -15.87500000000000000 ) ) ;
#48 = ORIENTED_EDGE ( 'NONE', *, *, #264, .F. ) ;
#49 = DIRECTION ( 'NONE',  ( 0.0000000000000000000, 0.0000000000000000000, 1.000000000000000000 ) ) ;
#50 = COLOUR_RGB ( '',0.9372549019607843146, 0.9607843137254902244, 1.000000000000000000 ) ;
#51 = ORIENTED_EDGE ( 'NONE', *, *, #306, .T. ) ;
#52 = DIRECTION ( 'NONE',  ( -1.000000000000000000, 0.0000000000000000000, 0.0000000000000000000 ) ) ;
#53 = ADVANCED_BREP_SHAPE_REPRESENTATION ( 'CUT-153-02-25', ( #80, #75 ), #150 ) ;
#54 = CARTESIAN_POINT ( 'NONE',  ( 0.0000000000000000000, 25.00000000000000000, -15.87500000000000000 ) ) ;
#55 = EDGE_CURVE ( 'NONE', #141, #99, #225, .T. ) ;
#56 = VECTOR ( 'NONE', #353, 1000.000000000000000 ) ;
#57 = PRESENTATION_LAYER_ASSIGNMENT (  '', '', ( #358 ) ) ;
#58 = ORIENTED_EDGE ( 'NONE', *, *, #124, .T. ) ;
#59 = ORIENTED_EDGE ( 'NONE', *, *, #14, .F. ) ;
#60 = SURFACE_SIDE_STYLE ('',( #361 ) ) ;
#61 = VECTOR ( 'NONE', #260, 1000.000000000000114 ) ;
#62 = ADVANCED_FACE ( 'NONE', ( #158 ), #288, .T. ) ;
#63 = CARTESIAN_POINT ( 'NONE',  ( 1.117490204221960002E-15, 15.87500000000000000, -15.87500000000000000 ) ) ;
#64 = ORIENTED_EDGE ( 'NONE', *, *, #215, .T. ) ;
#65 = DIRECTION ( 'NONE',  ( 1.224646799147353207E-16, -1.000000000000000000, 0.0000000000000000000 ) ) ;
#66 = EDGE_CURVE ( 'NONE', #317, #325, #209, .T. ) ;
#67 = LINE ( 'NONE', #289, #279 ) ;
#68 = APPLICATION_CONTEXT ( 'automotive_design' ) ;
#69 = ADVANCED_FACE ( 'NONE', ( #83 ), #333, .T. ) ;
#70 = CARTESIAN_POINT ( 'NONE',  ( 3.469446951953614189E-15, -1.613292832658430598E-13, -1.387778780781445676E-14 ) ) ;
#71 = VERTEX_POINT ( 'NONE', #37 ) ;
#72 = ORIENTED_EDGE ( 'NONE', *, *, #368, .F. ) ;
#73 = DIRECTION ( 'NONE',  ( 6.662198447806896522E-17, -0.5735764363510418296, -0.8191520442889947962 ) ) ;
#74 = EDGE_CURVE ( 'NONE', #120, #236, #171, .T. ) ;
#75 = AXIS2_PLACEMENT_3D ( 'NONE', #87, #42, #76 ) ;
#76 = DIRECTION ( 'NONE',  ( 1.000000000000000000, 0.0000000000000000000, 0.0000000000000000000 ) ) ;
#77 = VECTOR ( 'NONE', #304, 1000.000000000000000 ) ;
#78 = SURFACE_STYLE_USAGE ( .BOTH. , #60 ) ;
#79 = EDGE_CURVE ( 'NONE', #236, #169, #117, .T. ) ;
#80 = MANIFOLD_SOLID_BREP ( 'Aufsatz-Linear austragen1', #254 ) ;
#81 = CIRCLE ( 'NONE', #380, 4.000000000000000000 ) ;
#82 = EDGE_CURVE ( 'NONE', #127, #86, #100, .T. ) ;
#83 = FACE_OUTER_BOUND ( 'NONE', #379, .T. ) ;
#84 = UNCERTAINTY_MEASURE_WITH_UNIT (LENGTH_MEASURE( 1.000000000000000082E-05 ), #85, 'distance_accuracy_value', 'NONE');
#85 =( LENGTH_UNIT ( ) NAMED_UNIT ( * ) SI_UNIT ( .MILLI., .METRE. ) );
#86 = VERTEX_POINT ( 'NONE', #255 ) ;
#87 = CARTESIAN_POINT ( 'NONE',  ( 0.0000000000000000000, 0.0000000000000000000, 0.0000000000000000000 ) ) ;
#88 = ORIENTED_EDGE ( 'NONE', *, *, #14, .T. ) ;
#89 = CARTESIAN_POINT ( 'NONE',  ( 16.84314575050761675, 1.000000000000000000, -15.87500000000000000 ) ) ;
#90 = EDGE_CURVE ( 'NONE', #99, #71, #381, .T. ) ;
#91 = SURFACE_SIDE_STYLE ('',( #39 ) ) ;
#92 = ADVANCED_FACE ( 'NONE', ( #2 ), #210, .T. ) ;
#93 = DIRECTION ( 'NONE',  ( -0.0000000000000000000, 1.000000000000000000, -0.0000000000000000000 ) ) ;
#94 = LINE ( 'NONE', #159, #316 ) ;
#95 = DIRECTION ( 'NONE',  ( 0.0000000000000000000, -1.000000000000000000, 0.0000000000000000000 ) ) ;
#96 = DIRECTION ( 'NONE',  ( 1.000000000000000000, 0.0000000000000000000, 0.0000000000000000000 ) ) ;
#97 = PLANE ( 'NONE',  #26 ) ;
#98 = CARTESIAN_POINT ( 'NONE',  ( 3.000000000000002665, -1.613292832658430598E-13, -1.387778780781445676E-14 ) ) ;
#99 = VERTEX_POINT ( 'NONE', #241 ) ;
#100 = LINE ( 'NONE', #390, #222 ) ;
#101 = CARTESIAN_POINT ( 'NONE',  ( 23.49999999999998579, 0.0000000000000000000, 0.0000000000000000000 ) ) ;
#102 = ORIENTED_EDGE ( 'NONE', *, *, #283, .T. ) ;
#103 = CARTESIAN_POINT ( 'NONE',  ( 2.914230647672876409E-15, 5.000000000000000888, -4.911804920760110882 ) ) ;
#104 = DIRECTION ( 'NONE',  ( -1.161518853562087414E-16, 1.000000000000000000, 8.677831656748562794E-15 ) ) ;
#105 = ORIENTED_EDGE ( 'NONE', *, *, #321, .F. ) ;
#106 = LINE ( 'NONE', #274, #172 ) ;
#107 = EDGE_LOOP ( 'NONE', ( #192, #16, #319, #58 ) ) ;
#108 = VERTEX_POINT ( 'NONE', #168 ) ;
#109 = DIRECTION ( 'NONE',  ( 0.0000000000000000000, -0.0000000000000000000, -1.000000000000000000 ) ) ;
#110 = VECTOR ( 'NONE', #296, 1000.000000000000227 ) ;
#111 = FACE_OUTER_BOUND ( 'NONE', #206, .T. ) ;
#112 = PRODUCT_DEFINITION_FORMATION_WITH_SPECIFIED_SOURCE ( 'ANY', '', #25, .NOT_KNOWN. ) ;
#113 = ORIENTED_EDGE ( 'NONE', *, *, #157, .T. ) ;
#114 = CARTESIAN_POINT ( 'NONE',  ( 0.0000000000000000000, 0.0000000000000000000, -15.87500000000000000 ) ) ;
#115 = VECTOR ( 'NONE', #212, 1000.000000000000000 ) ;
#116 = ORIENTED_EDGE ( 'NONE', *, *, #355, .T. ) ;
#117 = LINE ( 'NONE', #334, #110 ) ;
#118 = LINE ( 'NONE', #308, #312 ) ;
#119 = CARTESIAN_POINT ( 'NONE',  ( 1.117490204221960002E-15, 15.87500000000000000, -15.87500000000000000 ) ) ;
#120 = VERTEX_POINT ( 'NONE', #318 ) ;
#121 = ADVANCED_FACE ( 'NONE', ( #331 ), #97, .T. ) ;
#122 = VERTEX_POINT ( 'NONE', #339 ) ;
#123 = PRODUCT_CONTEXT ( 'NONE', #68, 'mechanical' ) ;
#124 = EDGE_CURVE ( 'NONE', #325, #71, #359, .T. ) ;
#125 = VECTOR ( 'NONE', #93, 1000.000000000000000 ) ;
#126 = CARTESIAN_POINT ( 'NONE',  ( 3.469446951953614189E-15, 0.2199113894877525177, -1.564750842369094785 ) ) ;
#127 = VERTEX_POINT ( 'NONE', #228 ) ;
#128 = AXIS2_PLACEMENT_3D ( 'NONE', #291, #45, #268 ) ;
#129 = CARTESIAN_POINT ( 'NONE',  ( 2.999999999999999556, 5.000000000000021316, -5.999999999999965361 ) ) ;
#130 = MECHANICAL_DESIGN_GEOMETRIC_PRESENTATION_REPRESENTATION (  '', ( #143 ), #338 ) ;
#131 = ORIENTED_EDGE ( 'NONE', *, *, #298, .T. ) ;
#132 = DIRECTION ( 'NONE',  ( 0.7071067811865463515, -0.7071067811865487940, 0.0000000000000000000 ) ) ;
#133 = ORIENTED_EDGE ( 'NONE', *, *, #74, .F. ) ;
#134 = ORIENTED_EDGE ( 'NONE', *, *, #375, .T. ) ;
#135 = UNCERTAINTY_MEASURE_WITH_UNIT (LENGTH_MEASURE( 1.000000000000000082E-05 ), #328, 'distance_accuracy_value', 'NONE');
#136 = VECTOR ( 'NONE', #370, 1000.000000000000114 ) ;
#137 = ORIENTED_EDGE ( 'NONE', *, *, #321, .T. ) ;
#138 = DIRECTION ( 'NONE',  ( 0.0000000000000000000, -1.000000000000000000, 0.0000000000000000000 ) ) ;
#139 = AXIS2_PLACEMENT_3D ( 'NONE', #23, #202, #52 ) ;
#140 = DIRECTION ( 'NONE',  ( 0.7071067811865463515, -0.7071067811865487940, 0.0000000000000000000 ) ) ;
#141 = VERTEX_POINT ( 'NONE', #35 ) ;
#142 = AXIS2_PLACEMENT_3D ( 'NONE', #182, #183, #382 ) ;
#143 = STYLED_ITEM ( 'NONE', ( #287 ), #53 ) ;
#144 = FILL_AREA_STYLE ('',( #383 ) ) ;
#145 = ORIENTED_EDGE ( 'NONE', *, *, #180, .T. ) ;
#146 = LINE ( 'NONE', #235, #347 ) ;
#147 = FILL_AREA_STYLE ('',( #329 ) ) ;
#148 = CARTESIAN_POINT ( 'NONE',  ( 125.0000000000000000, 25.00000000000000000, 0.0000000000000000000 ) ) ;
#149 = EDGE_LOOP ( 'NONE', ( #51, #342, #392, #177, #64, #1, #266, #24, #113 ) ) ;
#150 =( GEOMETRIC_REPRESENTATION_CONTEXT ( 3 ) GLOBAL_UNCERTAINTY_ASSIGNED_CONTEXT ( ( #22 ) ) GLOBAL_UNIT_ASSIGNED_CONTEXT ( ( #33, #385, #191 ) ) REPRESENTATION_CONTEXT ( 'NONE', 'WORKASPACE' ) );
#151 = VECTOR ( 'NONE', #301, 1000.000000000000000 ) ;
#152 = VECTOR ( 'NONE', #297, 1000.000000000000000 ) ;
#153 = ORIENTED_EDGE ( 'NONE', *, *, #306, .F. ) ;
#154 = CARTESIAN_POINT ( 'NONE',  ( 18.50000000000000355, 5.000000000000000000, -15.87500000000000000 ) ) ;
#155 = DIRECTION ( 'NONE',  ( 1.000000000000000000, 0.0000000000000000000, 0.0000000000000000000 ) ) ;
#156 = PLANE ( 'NONE',  #262 ) ;
#157 = EDGE_CURVE ( 'NONE', #169, #374, #243, .T. ) ;
#158 = FACE_OUTER_BOUND ( 'NONE', #302, .T. ) ;
#159 = CARTESIAN_POINT ( 'NONE',  ( 3.469446951953614189E-15, -1.613292832658430598E-13, -1.387778780781445676E-14 ) ) ;
#160 = VECTOR ( 'NONE', #104, 1000.000000000000000 ) ;
#161 = AXIS2_PLACEMENT_3D ( 'NONE', #224, #277, #280 ) ;
#162 = CARTESIAN_POINT ( 'NONE',  ( 2.449293598294706513E-15, 5.000000000000000000, -15.87500000000000000 ) ) ;
#163 = EDGE_CURVE ( 'NONE', #141, #398, #314, .T. ) ;
#164 = VECTOR ( 'NONE', #44, 1000.000000000000000 ) ;
#165 = VERTEX_POINT ( 'NONE', #70 ) ;
#166 = DIRECTION ( 'NONE',  ( -0.0000000000000000000, -0.0000000000000000000, -1.000000000000000000 ) ) ;
#167 = ORIENTED_EDGE ( 'NONE', *, *, #174, .F. ) ;
#168 = CARTESIAN_POINT ( 'NONE',  ( 125.0000000000000000, 15.87500000000000000, -15.87500000000000000 ) ) ;
#169 = VERTEX_POINT ( 'NONE', #245 ) ;
#170 = DIRECTION ( 'NONE',  ( -1.161518853562087414E-16, 1.000000000000000000, 8.677831656748562794E-15 ) ) ;
#171 = LINE ( 'NONE', #218, #61 ) ;
#172 = VECTOR ( 'NONE', #43, 1000.000000000000000 ) ;
#173 = VERTEX_POINT ( 'NONE', #190 ) ;
#174 = EDGE_CURVE ( 'NONE', #108, #86, #345, .T. ) ;
#175 = VERTEX_POINT ( 'NONE', #227 ) ;
#176 = DIRECTION ( 'NONE',  ( 1.000000000000000000, 0.0000000000000000000, 0.0000000000000000000 ) ) ;
#177 = ORIENTED_EDGE ( 'NONE', *, *, #90, .T. ) ;
#178 = DIRECTION ( 'NONE',  ( 1.000000000000000000, 0.0000000000000000000, 0.0000000000000000000 ) ) ;
#179 = VECTOR ( 'NONE', #132, 999.9999999999998863 ) ;
#180 = EDGE_CURVE ( 'NONE', #120, #399, #307, .T. ) ;
#181 = ORIENTED_EDGE ( 'NONE', *, *, #74, .T. ) ;
#182 = CARTESIAN_POINT ( 'NONE',  ( 125.0000000000000000, 25.00000000000000000, -15.87500000000000000 ) ) ;
#183 = DIRECTION ( 'NONE',  ( 1.000000000000000000, 0.0000000000000000000, -0.0000000000000000000 ) ) ;
#184 = LINE ( 'NONE', #324, #115 ) ;
#185 = EDGE_LOOP ( 'NONE', ( #252, #267, #116, #12 ) ) ;
#186 = VERTEX_POINT ( 'NONE', #200 ) ;
#187 = APPLICATION_PROTOCOL_DEFINITION ( 'draft international standard', 'automotive_design', 1998, #68 ) ;
#188 = CARTESIAN_POINT ( 'NONE',  ( 23.49999999999998579, 0.0000000000000000000, -15.87500000000000000 ) ) ;
#189 = ORIENTED_EDGE ( 'NONE', *, *, #264, .T. ) ;
#190 = CARTESIAN_POINT ( 'NONE',  ( 2.449293598294706513E-15, 5.000000000000000000, -15.87500000000000000 ) ) ;
#191 =( NAMED_UNIT ( * ) SI_UNIT ( $, .STERADIAN. ) SOLID_ANGLE_UNIT ( ) );
#192 = ORIENTED_EDGE ( 'NONE', *, *, #90, .F. ) ;
#193 = ADVANCED_FACE ( 'NONE', ( #299 ), #365, .F. ) ;
#194 = PRESENTATION_LAYER_ASSIGNMENT (  '', '', ( #143 ) ) ;
#195 = CARTESIAN_POINT ( 'NONE',  ( 125.0000000000000000, 15.87500000000000000, -15.87500000000000000 ) ) ;
#196 = DIRECTION ( 'NONE',  ( -0.0000000000000000000, 0.0000000000000000000, 1.000000000000000000 ) ) ;
#197 = VECTOR ( 'NONE', #65, 1000.000000000000000 ) ;
#198 = CARTESIAN_POINT ( 'NONE',  ( 19.67157287525381193, 3.828427124746186294, -15.87500000000000000 ) ) ;
#199 = PRODUCT_DEFINITION_CONTEXT ( 'detailed design', #38, 'design' ) ;
#200 = CARTESIAN_POINT ( 'NONE',  ( 1.117490204221960002E-15, 15.87500000000000000, -15.87500000000000000 ) ) ;
#201 =( NAMED_UNIT ( * ) SI_UNIT ( $, .STERADIAN. ) SOLID_ANGLE_UNIT ( ) );
#202 = DIRECTION ( 'NONE',  ( 0.0000000000000000000, 0.0000000000000000000, -1.000000000000000000 ) ) ;
#203 = ORIENTED_EDGE ( 'NONE', *, *, #79, .F. ) ;
#204 = EDGE_CURVE ( 'NONE', #317, #99, #234, .T. ) ;
#205 = PLANE ( 'NONE',  #323 ) ;
#206 = EDGE_LOOP ( 'NONE', ( #393, #320, #249, #246 ) ) ;
#207 = DIRECTION ( 'NONE',  ( 1.616521806738838867E-17, -0.1391731009601240021, 0.9902680687415620353 ) ) ;
#208 = LINE ( 'NONE', #54, #197 ) ;
#209 = LINE ( 'NONE', #389, #285 ) ;
#210 = PLANE ( 'NONE',  #348 ) ;
#211 = DIRECTION ( 'NONE',  ( 1.150215031923841474E-16, -0.9902680687415621463, -0.1391731009601240299 ) ) ;
#212 = DIRECTION ( 'NONE',  ( 1.000000000000000000, 0.0000000000000000000, 0.0000000000000000000 ) ) ;
#213 = LINE ( 'NONE', #126, #136 ) ;
#214 = DIRECTION ( 'NONE',  ( 0.0000000000000000000, 0.0000000000000000000, 1.000000000000000000 ) ) ;
#215 = EDGE_CURVE ( 'NONE', #71, #86, #226, .T. ) ;
#216 = CARTESIAN_POINT ( 'NONE',  ( 3.000000000000002665, 0.2199113894877525177, -1.564750842369094785 ) ) ;
#217 = ADVANCED_FACE ( 'NONE', ( #295 ), #396, .F. ) ;
#218 = CARTESIAN_POINT ( 'NONE',  ( 3.000000000000002665, 0.2199113894877525177, -1.564750842369094785 ) ) ;
#219 = DIRECTION ( 'NONE',  ( 0.0000000000000000000, -0.0000000000000000000, -1.000000000000000000 ) ) ;
#220 = PLANE ( 'NONE',  #244 ) ;
#221 = MECHANICAL_DESIGN_GEOMETRIC_PRESENTATION_REPRESENTATION (  '', ( #358 ), #352 ) ;
#222 = VECTOR ( 'NONE', #176, 1000.000000000000000 ) ;
#223 = CARTESIAN_POINT ( 'NONE',  ( 19.67157287525381193, 3.828427124746185850, -15.87500000000000000 ) ) ;
#224 = CARTESIAN_POINT ( 'NONE',  ( 3.469446951953614189E-15, 7.499999999999902300, -2.999999999999954259 ) ) ;
#225 = LINE ( 'NONE', #286, #179 ) ;
#226 = LINE ( 'NONE', #148, #56 ) ;
#227 = CARTESIAN_POINT ( 'NONE',  ( 16.84314575050761675, 5.000000000000000000, 0.0000000000000000000 ) ) ;
#228 = CARTESIAN_POINT ( 'NONE',  ( 1.117490204221960002E-15, 15.87500000000000000, 0.0000000000000000000 ) ) ;
#229 = VECTOR ( 'NONE', #96, 1000.000000000000000 ) ;
#230 = CARTESIAN_POINT ( 'NONE',  ( 2.449293598294706513E-15, 5.000000000000000000, -15.87500000000000000 ) ) ;
#231 = SURFACE_STYLE_USAGE ( .BOTH. , #91 ) ;
#232 = DIRECTION ( 'NONE',  ( 1.007946507735138592E-30, -8.677831656748562794E-15, 1.000000000000000000 ) ) ;
#233 = ADVANCED_FACE ( 'NONE', ( #369 ), #220, .T. ) ;
#234 = LINE ( 'NONE', #188, #77 ) ;
#235 = CARTESIAN_POINT ( 'NONE',  ( 16.84314575050761675, 5.000000000000000000, 0.0000000000000000000 ) ) ;
#236 = VERTEX_POINT ( 'NONE', #239 ) ;
#237 = AXIS2_PLACEMENT_3D ( 'NONE', #98, #211, #207 ) ;
#238 = ADVANCED_FACE ( 'NONE', ( #46 ), #271, .T. ) ;
#239 = CARTESIAN_POINT ( 'NONE',  ( 3.000000000000002665, 0.2199113894877525177, -1.564750842369094785 ) ) ;
#240 = ORIENTED_EDGE ( 'NONE', *, *, #124, .F. ) ;
#241 = CARTESIAN_POINT ( 'NONE',  ( 23.49999999999998579, 0.0000000000000000000, 0.0000000000000000000 ) ) ;
#242 = DIRECTION ( 'NONE',  ( 1.000000000000000000, 0.0000000000000000000, 0.0000000000000000000 ) ) ;
#243 = LINE ( 'NONE', #273, #160 ) ;
#244 = AXIS2_PLACEMENT_3D ( 'NONE', #394, #73, #282 ) ;
#245 = CARTESIAN_POINT ( 'NONE',  ( 3.000000000000002665, -1.613292832658430598E-13, -1.387778780781445676E-14 ) ) ;
#246 = ORIENTED_EDGE ( 'NONE', *, *, #283, .F. ) ;
#247 = EDGE_CURVE ( 'NONE', #399, #3, #213, .T. ) ;
#248 = LINE ( 'NONE', #216, #311 ) ;
#249 = ORIENTED_EDGE ( 'NONE', *, *, #28, .F. ) ;
#250 = ORIENTED_EDGE ( 'NONE', *, *, #298, .F. ) ;
#251 = ORIENTED_EDGE ( 'NONE', *, *, #66, .F. ) ;
#252 = ORIENTED_EDGE ( 'NONE', *, *, #55, .F. ) ;
#253 = VECTOR ( 'NONE', #140, 999.9999999999998863 ) ;
#254 = CLOSED_SHELL ( 'NONE', ( #217, #303, #238, #233, #92, #62, #121, #27, #69, #11, #5, #193 ) ) ;
#255 = CARTESIAN_POINT ( 'NONE',  ( 125.0000000000000000, 15.87500000000000000, 0.0000000000000000000 ) ) ;
#256 = ORIENTED_EDGE ( 'NONE', *, *, #368, .T. ) ;
#257 = EDGE_LOOP ( 'NONE', ( #30, #181, #134, #31 ) ) ;
#258 = ORIENTED_EDGE ( 'NONE', *, *, #292, .F. ) ;
#259 = CARTESIAN_POINT ( 'NONE',  ( 125.0000000000000000, 0.0000000000000000000, -15.87500000000000000 ) ) ;
#260 = DIRECTION ( 'NONE',  ( 9.514605433755934095E-17, -0.8191520442889946851, 0.5735764363510417185 ) ) ;
#261 = DIRECTION ( 'NONE',  ( -0.0000000000000000000, 0.0000000000000000000, 1.000000000000000000 ) ) ;
#262 = AXIS2_PLACEMENT_3D ( 'NONE', #114, #196, #178 ) ;
#263 = FACE_OUTER_BOUND ( 'NONE', #149, .T. ) ;
#264 = EDGE_CURVE ( 'NONE', #186, #108, #67, .T. ) ;
#265 = CARTESIAN_POINT ( 'NONE',  ( 3.469446951953614189E-15, 0.2199113894877525177, -1.564750842369094785 ) ) ;
#266 = ORIENTED_EDGE ( 'NONE', *, *, #337, .F. ) ;
#267 = ORIENTED_EDGE ( 'NONE', *, *, #163, .T. ) ;
#268 = DIRECTION ( 'NONE',  ( 1.000000000000000000, 2.656295322589485863E-15, 0.0000000000000000000 ) ) ;
#269 = CIRCLE ( 'NONE', #128, 4.000000000000000000 ) ;
#270 = LINE ( 'NONE', #350, #164 ) ;
#271 = PLANE ( 'NONE',  #237 ) ;
#272 = DIRECTION ( 'NONE',  ( 1.000000000000000000, 0.0000000000000000000, 0.0000000000000000000 ) ) ;
#273 = CARTESIAN_POINT ( 'NONE',  ( 3.000000000000002665, 8.445896366636842956, 5.551115123125782702E-14 ) ) ;
#274 = CARTESIAN_POINT ( 'NONE',  ( 3.469446951953614189E-15, 8.445896366636842956, 5.551115123125782702E-14 ) ) ;
#275 = ORIENTED_EDGE ( 'NONE', *, *, #375, .F. ) ;
#276 = DIRECTION ( 'NONE',  ( -1.000000000000000000, -1.161518853562087414E-16, 0.0000000000000000000 ) ) ;
#277 = DIRECTION ( 'NONE',  ( 1.000000000000000000, 1.161518853562087414E-16, 0.0000000000000000000 ) ) ;
#278 = EDGE_CURVE ( 'NONE', #325, #108, #354, .T. ) ;
#279 = VECTOR ( 'NONE', #290, 1000.000000000000000 ) ;
#280 = DIRECTION ( 'NONE',  ( 1.161518853562087414E-16, -1.000000000000000000, -2.721450164542462693E-15 ) ) ;
#281 = CARTESIAN_POINT ( 'NONE',  ( 3.000000000000003109, 5.000000000000021316, 2.560824265498195647E-14 ) ) ;
#282 = DIRECTION ( 'NONE',  ( 9.514605433755934095E-17, -0.8191520442889946851, 0.5735764363510417185 ) ) ;
#283 = EDGE_CURVE ( 'NONE', #122, #175, #146, .T. ) ;
#284 = ORIENTED_EDGE ( 'NONE', *, *, #388, .T. ) ;
#285 = VECTOR ( 'NONE', #155, 1000.000000000000000 ) ;
#286 = CARTESIAN_POINT ( 'NONE',  ( 18.50000000000000355, 5.000000000000000000, 0.0000000000000000000 ) ) ;
#287 = PRESENTATION_STYLE_ASSIGNMENT (( #78 ) ) ;
#288 = PLANE ( 'NONE',  #142 ) ;
#289 = CARTESIAN_POINT ( 'NONE',  ( 1.117490204221960002E-15, 15.87500000000000000, -15.87500000000000000 ) ) ;
#290 = DIRECTION ( 'NONE',  ( 1.000000000000000000, 0.0000000000000000000, 0.0000000000000000000 ) ) ;
#291 = CARTESIAN_POINT ( 'NONE',  ( 16.84314575050761675, 1.000000000000000000, 0.0000000000000000000 ) ) ;
#292 = EDGE_CURVE ( 'NONE', #186, #173, #208, .T. ) ;
#293 = DIRECTION ( 'NONE',  ( -0.7071067811865487940, -0.7071067811865463515, 0.0000000000000000000 ) ) ;
#294 = ORIENTED_EDGE ( 'NONE', *, *, #157, .F. ) ;
#295 = FACE_OUTER_BOUND ( 'NONE', #340, .T. ) ;
#296 = DIRECTION ( 'NONE',  ( 1.616521806738838559E-17, -0.1391731009601240021, 0.9902680687415620353 ) ) ;
#297 = DIRECTION ( 'NONE',  ( 0.0000000000000000000, 0.0000000000000000000, 1.000000000000000000 ) ) ;
#298 = EDGE_CURVE ( 'NONE', #173, #122, #40, .T. ) ;
#299 = FACE_OUTER_BOUND ( 'NONE', #21, .T. ) ;
#300 = LINE ( 'NONE', #129, #152 ) ;
#301 = DIRECTION ( 'NONE',  ( -0.0000000000000000000, -0.0000000000000000000, 1.000000000000000000 ) ) ;
#302 = EDGE_LOOP ( 'NONE', ( #346, #313, #240, #310 ) ) ;
#303 = ADVANCED_FACE ( 'NONE', ( #263 ), #205, .T. ) ;
#304 = DIRECTION ( 'NONE',  ( 0.0000000000000000000, 0.0000000000000000000, 1.000000000000000000 ) ) ;
#305 = CARTESIAN_POINT ( 'NONE',  ( 125.0000000000000000, 0.0000000000000000000, -15.87500000000000000 ) ) ;
#306 = EDGE_CURVE ( 'NONE', #374, #175, #184, .T. ) ;
#307 = LINE ( 'NONE', #327, #378 ) ;
#308 = CARTESIAN_POINT ( 'NONE',  ( 2.449293598294706513E-15, 5.000000000000000000, -15.87500000000000000 ) ) ;
#309 = PLANE ( 'NONE',  #366 ) ;
#310 = ORIENTED_EDGE ( 'NONE', *, *, #278, .T. ) ;
#311 = VECTOR ( 'NONE', #386, 1000.000000000000000 ) ;
#312 = VECTOR ( 'NONE', #322, 1000.000000000000000 ) ;
#313 = ORIENTED_EDGE ( 'NONE', *, *, #215, .F. ) ;
#314 = LINE ( 'NONE', #223, #387 ) ;
#315 = CARTESIAN_POINT ( 'NONE',  ( 23.49999999999998579, 0.0000000000000000000, -15.87500000000000000 ) ) ;
#316 = VECTOR ( 'NONE', #343, 1000.000000000000227 ) ;
#317 = VERTEX_POINT ( 'NONE', #315 ) ;
#318 = CARTESIAN_POINT ( 'NONE',  ( 2.999999999999999556, 5.000000000000021316, -4.911804920760110882 ) ) ;
#319 = ORIENTED_EDGE ( 'NONE', *, *, #66, .T. ) ;
#320 = ORIENTED_EDGE ( 'NONE', *, *, #163, .F. ) ;
#321 = EDGE_CURVE ( 'NONE', #186, #127, #335, .T. ) ;
#322 = DIRECTION ( 'NONE',  ( 0.0000000000000000000, 0.0000000000000000000, 1.000000000000000000 ) ) ;
#323 = AXIS2_PLACEMENT_3D ( 'NONE', #6, #232, #170 ) ;
#324 = CARTESIAN_POINT ( 'NONE',  ( 2.449293598294706513E-15, 5.000000000000000000, 0.0000000000000000000 ) ) ;
#325 = VERTEX_POINT ( 'NONE', #259 ) ;
#326 = LINE ( 'NONE', #41, #253 ) ;
#327 = CARTESIAN_POINT ( 'NONE',  ( 3.000000000000002220, 5.000000000000015987, -4.911804920760121540 ) ) ;
#328 =( LENGTH_UNIT ( ) NAMED_UNIT ( * ) SI_UNIT ( .MILLI., .METRE. ) );
#329 = FILL_AREA_STYLE_COLOUR ( '', #9 ) ;
#330 =( NAMED_UNIT ( * ) PLANE_ANGLE_UNIT ( ) SI_UNIT ( $, .RADIAN. ) );
#331 = FACE_OUTER_BOUND ( 'NONE', #107, .T. ) ;
#332 = ORIENTED_EDGE ( 'NONE', *, *, #13, .F. ) ;
#333 = PLANE ( 'NONE',  #8 ) ;
#334 = CARTESIAN_POINT ( 'NONE',  ( 3.000000000000002665, -1.613292832658430598E-13, -1.387778780781445676E-14 ) ) ;
#335 = LINE ( 'NONE', #119, #17 ) ;
#336 = PRODUCT_DEFINITION ( 'UNKNOWN', '', #112, #199 ) ;
#337 = EDGE_CURVE ( 'NONE', #165, #127, #106, .T. ) ;
#338 =( GEOMETRIC_REPRESENTATION_CONTEXT ( 3 ) GLOBAL_UNCERTAINTY_ASSIGNED_CONTEXT ( ( #135 ) ) GLOBAL_UNIT_ASSIGNED_CONTEXT ( ( #328, #364, #201 ) ) REPRESENTATION_CONTEXT ( 'NONE', 'WORKASPACE' ) );
#339 = CARTESIAN_POINT ( 'NONE',  ( 16.84314575050761675, 5.000000000000000000, -15.87500000000000000 ) ) ;
#340 = EDGE_LOOP ( 'NONE', ( #15, #105, #360, #401, #357, #256 ) ) ;
#341 = ORIENTED_EDGE ( 'NONE', *, *, #373, .T. ) ;
#342 = ORIENTED_EDGE ( 'NONE', *, *, #28, .T. ) ;
#343 = DIRECTION ( 'NONE',  ( 1.616521806738838559E-17, -0.1391731009601240021, 0.9902680687415620353 ) ) ;
#344 =( NAMED_UNIT ( * ) SI_UNIT ( $, .STERADIAN. ) SOLID_ANGLE_UNIT ( ) );
#345 = LINE ( 'NONE', #195, #151 ) ;
#346 = ORIENTED_EDGE ( 'NONE', *, *, #174, .T. ) ;
#347 = VECTOR ( 'NONE', #49, 1000.000000000000000 ) ;
#348 = AXIS2_PLACEMENT_3D ( 'NONE', #36, #20, #402 ) ;
#349 = CYLINDRICAL_SURFACE ( 'NONE', #139, 4.000000000000000000 ) ;
#350 = CARTESIAN_POINT ( 'NONE',  ( 3.000000000000002665, -1.613292832658430598E-13, -1.387778780781445676E-14 ) ) ;
#351 = ORIENTED_EDGE ( 'NONE', *, *, #278, .F. ) ;
#352 =( GEOMETRIC_REPRESENTATION_CONTEXT ( 3 ) GLOBAL_UNCERTAINTY_ASSIGNED_CONTEXT ( ( #84 ) ) GLOBAL_UNIT_ASSIGNED_CONTEXT ( ( #85, #330, #344 ) ) REPRESENTATION_CONTEXT ( 'NONE', 'WORKASPACE' ) );
#353 = DIRECTION ( 'NONE',  ( -0.0000000000000000000, 1.000000000000000000, -0.0000000000000000000 ) ) ;
#354 = LINE ( 'NONE', #395, #125 ) ;
#355 = EDGE_CURVE ( 'NONE', #398, #317, #326, .T. ) ;
#356 = FACE_OUTER_BOUND ( 'NONE', #185, .T. ) ;
#357 = ORIENTED_EDGE ( 'NONE', *, *, #247, .T. ) ;
#358 = STYLED_ITEM ( 'NONE', ( #32 ), #80 ) ;
#359 = LINE ( 'NONE', #305, #397 ) ;
#360 = ORIENTED_EDGE ( 'NONE', *, *, #292, .T. ) ;
#361 = SURFACE_STYLE_FILL_AREA ( #144 ) ;
#362 = ORIENTED_EDGE ( 'NONE', *, *, #79, .T. ) ;
#363 = ORIENTED_EDGE ( 'NONE', *, *, #82, .T. ) ;
#364 =( NAMED_UNIT ( * ) PLANE_ANGLE_UNIT ( ) SI_UNIT ( $, .RADIAN. ) );
#365 = PLANE ( 'NONE',  #400 ) ;
#366 = AXIS2_PLACEMENT_3D ( 'NONE', #154, #293, #376 ) ;
#367 = APPLICATION_PROTOCOL_DEFINITION ( 'draft international standard', 'automotive_design', 1998, #38 ) ;
#368 = EDGE_CURVE ( 'NONE', #3, #165, #94, .T. ) ;
#369 = FACE_OUTER_BOUND ( 'NONE', #257, .T. ) ;
#370 = DIRECTION ( 'NONE',  ( 9.514605433755934095E-17, -0.8191520442889946851, 0.5735764363510417185 ) ) ;
#371 = DIRECTION ( 'NONE',  ( -0.0000000000000000000, -0.0000000000000000000, 1.000000000000000000 ) ) ;
#372 = DIRECTION ( 'NONE',  ( 0.0000000000000000000, -1.000000000000000000, 0.0000000000000000000 ) ) ;
#373 = EDGE_CURVE ( 'NONE', #169, #165, #270, .T. ) ;
#374 = VERTEX_POINT ( 'NONE', #281 ) ;
#375 = EDGE_CURVE ( 'NONE', #236, #3, #248, .T. ) ;
#376 = DIRECTION ( 'NONE',  ( 0.7071067811865463515, -0.7071067811865487940, 0.0000000000000000000 ) ) ;
#377 = DIRECTION ( 'NONE',  ( 0.0000000000000000000, -0.0000000000000000000, -1.000000000000000000 ) ) ;
#378 = VECTOR ( 'NONE', #276, 1000.000000000000000 ) ;
#379 = EDGE_LOOP ( 'NONE', ( #145, #332, #131, #102, #153, #59 ) ) ;
#380 = AXIS2_PLACEMENT_3D ( 'NONE', #89, #261, #242 ) ;
#381 = LINE ( 'NONE', #101, #229 ) ;
#382 = DIRECTION ( 'NONE',  ( -0.0000000000000000000, 0.0000000000000000000, -1.000000000000000000 ) ) ;
#383 = FILL_AREA_STYLE_COLOUR ( '', #50 ) ;
#384 = EDGE_LOOP ( 'NONE', ( #88, #294, #203, #133 ) ) ;
#385 =( NAMED_UNIT ( * ) PLANE_ANGLE_UNIT ( ) SI_UNIT ( $, .RADIAN. ) );
#386 = DIRECTION ( 'NONE',  ( -1.000000000000000000, -1.161518853562087414E-16, 0.0000000000000000000 ) ) ;
#387 = VECTOR ( 'NONE', #166, 1000.000000000000000 ) ;
#388 = EDGE_CURVE ( 'NONE', #398, #122, #81, .T. ) ;
#389 = CARTESIAN_POINT ( 'NONE',  ( 23.49999999999998579, 0.0000000000000000000, -15.87500000000000000 ) ) ;
#390 = CARTESIAN_POINT ( 'NONE',  ( 1.117490204221960002E-15, 15.87500000000000000, 0.0000000000000000000 ) ) ;
#391 = SHAPE_DEFINITION_REPRESENTATION ( #19, #53 ) ;
#392 = ORIENTED_EDGE ( 'NONE', *, *, #55, .T. ) ;
#393 = ORIENTED_EDGE ( 'NONE', *, *, #388, .F. ) ;
#394 = CARTESIAN_POINT ( 'NONE',  ( 3.000000000000002665, 0.2199113894877525177, -1.564750842369094785 ) ) ;
#395 = CARTESIAN_POINT ( 'NONE',  ( 125.0000000000000000, 25.00000000000000000, -15.87500000000000000 ) ) ;
#396 = PLANE ( 'NONE',  #161 ) ;
#397 = VECTOR ( 'NONE', #214, 1000.000000000000000 ) ;
#398 = VERTEX_POINT ( 'NONE', #198 ) ;
#399 = VERTEX_POINT ( 'NONE', #103 ) ;
#400 = AXIS2_PLACEMENT_3D ( 'NONE', #63, #95, #377 ) ;
#401 = ORIENTED_EDGE ( 'NONE', *, *, #13, .T. ) ;
#402 = DIRECTION ( 'NONE',  ( 1.161518853562087414E-16, -1.000000000000000000, -2.721450164542462693E-15 ) ) ;
ENDSEC;
END-ISO-10303-21;
