ISO-10303-21;
HEADER;
FILE_DESCRIPTION (( 'STEP AP214' ),
    '1' );
FILE_NAME ('CUT-153-02-26.step',
    '2019-06-05T11:21:03',
    ( '' ),
    ( '' ),
    'SwSTEP 2.0',
    'SolidWorks 2018',
    '' );
FILE_SCHEMA (( 'AUTOMOTIVE_DESIGN' ));
ENDSEC;

DATA;
#1 = CARTESIAN_POINT ( 'NONE',  ( 3.000000000000002665, 1.613292832658430598E-13, -1.387778780781445676E-14 ) ) ;
#2 = CARTESIAN_POINT ( 'NONE',  ( 3.000000000000002220, -5.000000000000015987, -4.911804920760121540 ) ) ;
#3 = DIRECTION ( 'NONE',  ( -1.000000000000000000, 0.0000000000000000000, 0.0000000000000000000 ) ) ;
#4 = VECTOR ( 'NONE', #217, 1000.000000000000000 ) ;
#5 = VECTOR ( 'NONE', #320, 1000.000000000000000 ) ;
#6 = VERTEX_POINT ( 'NONE', #236 ) ;
#7 = ORIENTED_EDGE ( 'NONE', *, *, #220, .F. ) ;
#8 = FACE_OUTER_BOUND ( 'NONE', #118, .T. ) ;
#9 = FACE_OUTER_BOUND ( 'NONE', #300, .T. ) ;
#10 = DIRECTION ( 'NONE',  ( 0.0000000000000000000, 0.0000000000000000000, -1.000000000000000000 ) ) ;
#11 = FACE_OUTER_BOUND ( 'NONE', #144, .T. ) ;
#12 = ORIENTED_EDGE ( 'NONE', *, *, #61, .T. ) ;
#13 = LINE ( 'NONE', #84, #5 ) ;
#14 = UNCERTAINTY_MEASURE_WITH_UNIT (LENGTH_MEASURE( 1.000000000000000082E-05 ), #381, 'distance_accuracy_value', 'NONE');
#15 = DIRECTION ( 'NONE',  ( 9.514605433755934095E-17, 0.8191520442889946851, 0.5735764363510417185 ) ) ;
#16 =( NAMED_UNIT ( * ) PLANE_ANGLE_UNIT ( ) SI_UNIT ( $, .RADIAN. ) );
#17 = EDGE_CURVE ( 'NONE', #23, #289, #123, .T. ) ;
#18 = ORIENTED_EDGE ( 'NONE', *, *, #308, .F. ) ;
#19 = CARTESIAN_POINT ( 'NONE',  ( 3.000000000000002665, 1.613292832658430598E-13, -1.387778780781445676E-14 ) ) ;
#20 = DIRECTION ( 'NONE',  ( 0.0000000000000000000, 0.0000000000000000000, 1.000000000000000000 ) ) ;
#21 = APPLICATION_PROTOCOL_DEFINITION ( 'draft international standard', 'automotive_design', 1998, #361 ) ;
#22 = VERTEX_POINT ( 'NONE', #162 ) ;
#23 = VERTEX_POINT ( 'NONE', #214 ) ;
#24 = CARTESIAN_POINT ( 'NONE',  ( 23.49999999999998579, 0.0000000000000000000, -15.87500000000000000 ) ) ;
#25 = DIRECTION ( 'NONE',  ( 1.000000000000000000, 0.0000000000000000000, 0.0000000000000000000 ) ) ;
#26 = PRESENTATION_STYLE_ASSIGNMENT (( #151 ) ) ;
#27 = DIRECTION ( 'NONE',  ( -0.7071067811865487940, 0.7071067811865463515, 0.0000000000000000000 ) ) ;
#28 = PLANE ( 'NONE',  #315 ) ;
#29 = ORIENTED_EDGE ( 'NONE', *, *, #163, .F. ) ;
#30 = ORIENTED_EDGE ( 'NONE', *, *, #186, .F. ) ;
#31 = DIRECTION ( 'NONE',  ( 0.0000000000000000000, 1.000000000000000000, 0.0000000000000000000 ) ) ;
#32 = PRESENTATION_STYLE_ASSIGNMENT (( #71 ) ) ;
#33 = VECTOR ( 'NONE', #138, 1000.000000000000000 ) ;
#34 = CARTESIAN_POINT ( 'NONE',  ( 125.0000000000000000, -25.00000000000000000, -15.87500000000000000 ) ) ;
#35 = VECTOR ( 'NONE', #72, 1000.000000000000000 ) ;
#36 = FILL_AREA_STYLE_COLOUR ( '', #212 ) ;
#37 = PRODUCT_DEFINITION_CONTEXT ( 'detailed design', #264, 'design' ) ;
#38 = AXIS2_PLACEMENT_3D ( 'NONE', #374, #295, #216 ) ;
#39 = APPLICATION_PROTOCOL_DEFINITION ( 'draft international standard', 'automotive_design', 1998, #264 ) ;
#40 = CLOSED_SHELL ( 'NONE', ( #249, #210, #130, #91, #234, #382, #62, #176, #387, #331, #365, #141 ) ) ;
#41 = VERTEX_POINT ( 'NONE', #198 ) ;
#42 = ORIENTED_EDGE ( 'NONE', *, *, #127, .T. ) ;
#43 = VECTOR ( 'NONE', #96, 1000.000000000000227 ) ;
#44 = VECTOR ( 'NONE', #161, 1000.000000000000000 ) ;
#45 = CARTESIAN_POINT ( 'NONE',  ( 3.000000000000002665, -0.2199113894877525177, -1.564750842369094785 ) ) ;
#46 = LINE ( 'NONE', #257, #43 ) ;
#47 = AXIS2_PLACEMENT_3D ( 'NONE', #116, #232, #299 ) ;
#48 = EDGE_CURVE ( 'NONE', #133, #104, #57, .T. ) ;
#49 = CARTESIAN_POINT ( 'NONE',  ( 3.000000000000002665, -8.445896366636842956, 5.551115123125782702E-14 ) ) ;
#50 = ORIENTED_EDGE ( 'NONE', *, *, #220, .T. ) ;
#51 = VECTOR ( 'NONE', #66, 1000.000000000000000 ) ;
#52 = PLANE ( 'NONE',  #391 ) ;
#53 = AXIS2_PLACEMENT_3D ( 'NONE', #203, #60, #191 ) ;
#54 = ORIENTED_EDGE ( 'NONE', *, *, #164, .T. ) ;
#55 = ORIENTED_EDGE ( 'NONE', *, *, #132, .T. ) ;
#56 = ORIENTED_EDGE ( 'NONE', *, *, #256, .F. ) ;
#57 = LINE ( 'NONE', #181, #195 ) ;
#58 = FACE_OUTER_BOUND ( 'NONE', #345, .T. ) ;
#59 = PLANE ( 'NONE',  #53 ) ;
#60 = DIRECTION ( 'NONE',  ( 1.000000000000000000, 0.0000000000000000000, 0.0000000000000000000 ) ) ;
#61 = EDGE_CURVE ( 'NONE', #75, #354, #13, .T. ) ;
#62 = ADVANCED_FACE ( 'NONE', ( #8 ), #388, .T. ) ;
#63 = PLANE ( 'NONE',  #102 ) ;
#64 = ORIENTED_EDGE ( 'NONE', *, *, #124, .F. ) ;
#65 = EDGE_LOOP ( 'NONE', ( #105, #215, #248, #310 ) ) ;
#66 = DIRECTION ( 'NONE',  ( 0.0000000000000000000, 0.0000000000000000000, 1.000000000000000000 ) ) ;
#67 = ORIENTED_EDGE ( 'NONE', *, *, #243, .T. ) ;
#68 = FACE_OUTER_BOUND ( 'NONE', #226, .T. ) ;
#69 = LINE ( 'NONE', #364, #51 ) ;
#70 = CARTESIAN_POINT ( 'NONE',  ( 2.999999999999999556, -5.000000000000021316, -5.999999999999965361 ) ) ;
#71 = SURFACE_STYLE_USAGE ( .BOTH. , #392 ) ;
#72 = DIRECTION ( 'NONE',  ( 0.0000000000000000000, 0.0000000000000000000, 1.000000000000000000 ) ) ;
#73 = PRODUCT_DEFINITION_FORMATION_WITH_SPECIFIED_SOURCE ( 'ANY', '', #360, .NOT_KNOWN. ) ;
#74 = DIRECTION ( 'NONE',  ( 1.224646799147353207E-16, 1.000000000000000000, 0.0000000000000000000 ) ) ;
#75 = VERTEX_POINT ( 'NONE', #170 ) ;
#76 = ORIENTED_EDGE ( 'NONE', *, *, #142, .F. ) ;
#77 = ORIENTED_EDGE ( 'NONE', *, *, #132, .F. ) ;
#78 = LINE ( 'NONE', #119, #370 ) ;
#79 = VECTOR ( 'NONE', #103, 999.9999999999998863 ) ;
#80 = DIRECTION ( 'NONE',  ( 0.0000000000000000000, 1.000000000000000000, 0.0000000000000000000 ) ) ;
#81 = FACE_OUTER_BOUND ( 'NONE', #338, .T. ) ;
#82 = PLANE ( 'NONE',  #385 ) ;
#83 = DIRECTION ( 'NONE',  ( 0.0000000000000000000, 1.000000000000000000, 0.0000000000000000000 ) ) ;
#84 = CARTESIAN_POINT ( 'NONE',  ( 125.0000000000000000, -25.00000000000000000, 0.0000000000000000000 ) ) ;
#85 = CARTESIAN_POINT ( 'NONE',  ( 1.117490204221960002E-15, -15.87500000000000000, 0.0000000000000000000 ) ) ;
#86 = VECTOR ( 'NONE', #20, 1000.000000000000000 ) ;
#87 = PLANE ( 'NONE',  #187 ) ;
#88 = DIRECTION ( 'NONE',  ( 1.000000000000000000, -2.656295322589485863E-15, 0.0000000000000000000 ) ) ;
#89 = ORIENTED_EDGE ( 'NONE', *, *, #178, .T. ) ;
#90 = VERTEX_POINT ( 'NONE', #115 ) ;
#91 = ADVANCED_FACE ( 'NONE', ( #383 ), #244, .T. ) ;
#92 =( GEOMETRIC_REPRESENTATION_CONTEXT ( 3 ) GLOBAL_UNCERTAINTY_ASSIGNED_CONTEXT ( ( #402 ) ) GLOBAL_UNIT_ASSIGNED_CONTEXT ( ( #316, #287, #204 ) ) REPRESENTATION_CONTEXT ( 'NONE', 'WORKASPACE' ) );
#93 = UNCERTAINTY_MEASURE_WITH_UNIT (LENGTH_MEASURE( 1.000000000000000082E-05 ), #341, 'distance_accuracy_value', 'NONE');
#94 = ORIENTED_EDGE ( 'NONE', *, *, #348, .T. ) ;
#95 = ORIENTED_EDGE ( 'NONE', *, *, #343, .T. ) ;
#96 = DIRECTION ( 'NONE',  ( 1.616521806738838559E-17, 0.1391731009601240021, 0.9902680687415620353 ) ) ;
#97 = EDGE_CURVE ( 'NONE', #143, #120, #302, .T. ) ;
#98 = DIRECTION ( 'NONE',  ( 1.161518853562087414E-16, 1.000000000000000000, -2.721450164542462693E-15 ) ) ;
#99 = DIRECTION ( 'NONE',  ( 1.000000000000000000, -1.161518853562087414E-16, 0.0000000000000000000 ) ) ;
#100 =( NAMED_UNIT ( * ) SI_UNIT ( $, .STERADIAN. ) SOLID_ANGLE_UNIT ( ) );
#101 = DIRECTION ( 'NONE',  ( 0.0000000000000000000, 0.0000000000000000000, 1.000000000000000000 ) ) ;
#102 = AXIS2_PLACEMENT_3D ( 'NONE', #231, #333, #158 ) ;
#103 = DIRECTION ( 'NONE',  ( 0.7071067811865463515, 0.7071067811865487940, 0.0000000000000000000 ) ) ;
#104 = VERTEX_POINT ( 'NONE', #344 ) ;
#105 = ORIENTED_EDGE ( 'NONE', *, *, #97, .T. ) ;
#106 = ORIENTED_EDGE ( 'NONE', *, *, #114, .T. ) ;
#107 = DIRECTION ( 'NONE',  ( 0.0000000000000000000, 0.0000000000000000000, 1.000000000000000000 ) ) ;
#108 = COLOUR_RGB ( '',0.9372549019607843146, 0.9607843137254902244, 1.000000000000000000 ) ;
#109 = VECTOR ( 'NONE', #369, 1000.000000000000000 ) ;
#110 = CARTESIAN_POINT ( 'NONE',  ( 2.449293598294706513E-15, -5.000000000000000000, -15.87500000000000000 ) ) ;
#111 = VECTOR ( 'NONE', #309, 1000.000000000000000 ) ;
#112 = SHAPE_DEFINITION_REPRESENTATION ( #268, #330 ) ;
#113 = VECTOR ( 'NONE', #349, 1000.000000000000000 ) ;
#114 = EDGE_CURVE ( 'NONE', #337, #23, #169, .T. ) ;
#115 = CARTESIAN_POINT ( 'NONE',  ( 3.469446951953614189E-15, 1.613292832658430598E-13, -1.387778780781445676E-14 ) ) ;
#116 = CARTESIAN_POINT ( 'NONE',  ( 16.84314575050761675, -1.000000000000000000, -15.87500000000000000 ) ) ;
#117 = DIRECTION ( 'NONE',  ( 0.0000000000000000000, 0.0000000000000000000, 1.000000000000000000 ) ) ;
#118 = EDGE_LOOP ( 'NONE', ( #194, #259, #18, #50 ) ) ;
#119 = CARTESIAN_POINT ( 'NONE',  ( 2.449293598294706513E-15, -5.000000000000000000, -15.87500000000000000 ) ) ;
#120 = VERTEX_POINT ( 'NONE', #273 ) ;
#121 = ORIENTED_EDGE ( 'NONE', *, *, #48, .F. ) ;
#122 = CARTESIAN_POINT ( 'NONE',  ( 0.0000000000000000000, 0.0000000000000000000, -15.87500000000000000 ) ) ;
#123 = CIRCLE ( 'NONE', #199, 4.000000000000000000 ) ;
#124 = EDGE_CURVE ( 'NONE', #275, #90, #46, .T. ) ;
#125 = AXIS2_PLACEMENT_3D ( 'NONE', #180, #80, #342 ) ;
#126 = CARTESIAN_POINT ( 'NONE',  ( 16.84314575050761675, -1.000000000000000000, -15.87500000000000000 ) ) ;
#127 = EDGE_CURVE ( 'NONE', #143, #337, #262, .T. ) ;
#128 = CARTESIAN_POINT ( 'NONE',  ( 125.0000000000000000, 0.0000000000000000000, -15.87500000000000000 ) ) ;
#129 = CARTESIAN_POINT ( 'NONE',  ( 3.000000000000002665, 1.613292832658430598E-13, -1.387778780781445676E-14 ) ) ;
#130 = ADVANCED_FACE ( 'NONE', ( #68 ), #82, .T. ) ;
#131 = ORIENTED_EDGE ( 'NONE', *, *, #186, .T. ) ;
#132 = EDGE_CURVE ( 'NONE', #104, #6, #78, .T. ) ;
#133 = VERTEX_POINT ( 'NONE', #286 ) ;
#134 = LINE ( 'NONE', #223, #33 ) ;
#135 = LINE ( 'NONE', #206, #314 ) ;
#136 = CARTESIAN_POINT ( 'NONE',  ( 18.50000000000000355, -5.000000000000000000, -15.87500000000000000 ) ) ;
#137 = CARTESIAN_POINT ( 'NONE',  ( 3.000000000000003109, -5.000000000000021316, 2.560824265498195647E-14 ) ) ;
#138 = DIRECTION ( 'NONE',  ( 0.0000000000000000000, 0.0000000000000000000, 1.000000000000000000 ) ) ;
#139 = STYLED_ITEM ( 'NONE', ( #26 ), #330 ) ;
#140 = DIRECTION ( 'NONE',  ( 1.150215031923841474E-16, 0.9902680687415621463, -0.1391731009601240299 ) ) ;
#141 = ADVANCED_FACE ( 'NONE', ( #146 ), #294, .F. ) ;
#142 = EDGE_CURVE ( 'NONE', #289, #41, #251, .T. ) ;
#143 = VERTEX_POINT ( 'NONE', #373 ) ;
#144 = EDGE_LOOP ( 'NONE', ( #237, #326, #379, #313 ) ) ;
#145 = EDGE_LOOP ( 'NONE', ( #335, #64, #301, #168, #121, #192 ) ) ;
#146 = FACE_OUTER_BOUND ( 'NONE', #336, .T. ) ;
#147 = LINE ( 'NONE', #296, #86 ) ;
#148 = CARTESIAN_POINT ( 'NONE',  ( 2.449293598294706513E-15, -5.000000000000000000, 0.0000000000000000000 ) ) ;
#149 =( NAMED_UNIT ( * ) PLANE_ANGLE_UNIT ( ) SI_UNIT ( $, .RADIAN. ) );
#150 = CARTESIAN_POINT ( 'NONE',  ( 19.67157287525381193, -3.828427124746186294, -15.87500000000000000 ) ) ;
#151 = SURFACE_STYLE_USAGE ( .BOTH. , #225 ) ;
#152 = EDGE_LOOP ( 'NONE', ( #224, #396, #323, #12 ) ) ;
#153 = LINE ( 'NONE', #352, #109 ) ;
#154 = FILL_AREA_STYLE_COLOUR ( '', #108 ) ;
#155 = MANIFOLD_SOLID_BREP ( 'Spiegeln1', #40 ) ;
#156 = VECTOR ( 'NONE', #321, 1000.000000000000000 ) ;
#157 = SURFACE_STYLE_FILL_AREA ( #293 ) ;
#158 = DIRECTION ( 'NONE',  ( 1.161518853562087414E-16, 1.000000000000000000, -2.721450164542462693E-15 ) ) ;
#159 = EDGE_CURVE ( 'NONE', #133, #193, #153, .T. ) ;
#160 = DIRECTION ( 'NONE',  ( 0.0000000000000000000, 0.0000000000000000000, -1.000000000000000000 ) ) ;
#161 = DIRECTION ( 'NONE',  ( 0.0000000000000000000, 0.0000000000000000000, 1.000000000000000000 ) ) ;
#162 = CARTESIAN_POINT ( 'NONE',  ( 1.117490204221960002E-15, -15.87500000000000000, 0.0000000000000000000 ) ) ;
#163 = EDGE_CURVE ( 'NONE', #380, #239, #227, .T. ) ;
#164 = EDGE_CURVE ( 'NONE', #167, #275, #328, .T. ) ;
#165 = PRESENTATION_LAYER_ASSIGNMENT (  '', '', ( #139 ) ) ;
#166 = ORIENTED_EDGE ( 'NONE', *, *, #281, .T. ) ;
#167 = VERTEX_POINT ( 'NONE', #285 ) ;
#168 = ORIENTED_EDGE ( 'NONE', *, *, #343, .F. ) ;
#169 = LINE ( 'NONE', #148, #358 ) ;
#170 = CARTESIAN_POINT ( 'NONE',  ( 125.0000000000000000, 0.0000000000000000000, 0.0000000000000000000 ) ) ;
#171 = PLANE ( 'NONE',  #305 ) ;
#172 = CIRCLE ( 'NONE', #47, 4.000000000000000000 ) ;
#173 = ORIENTED_EDGE ( 'NONE', *, *, #159, .F. ) ;
#174 = LINE ( 'NONE', #85, #359 ) ;
#175 =( NAMED_UNIT ( * ) SI_UNIT ( $, .STERADIAN. ) SOLID_ANGLE_UNIT ( ) );
#176 = ADVANCED_FACE ( 'NONE', ( #9 ), #28, .T. ) ;
#177 = PLANE ( 'NONE',  #246 ) ;
#178 = EDGE_CURVE ( 'NONE', #277, #193, #280, .T. ) ;
#179 = ORIENTED_EDGE ( 'NONE', *, *, #389, .T. ) ;
#180 = CARTESIAN_POINT ( 'NONE',  ( 1.117490204221960002E-15, -15.87500000000000000, -15.87500000000000000 ) ) ;
#181 = CARTESIAN_POINT ( 'NONE',  ( 0.0000000000000000000, -25.00000000000000000, -15.87500000000000000 ) ) ;
#182 = VERTEX_POINT ( 'NONE', #372 ) ;
#183 =( GEOMETRIC_REPRESENTATION_CONTEXT ( 3 ) GLOBAL_UNCERTAINTY_ASSIGNED_CONTEXT ( ( #93 ) ) GLOBAL_UNIT_ASSIGNED_CONTEXT ( ( #341, #16, #100 ) ) REPRESENTATION_CONTEXT ( 'NONE', 'WORKASPACE' ) );
#184 = FACE_OUTER_BOUND ( 'NONE', #145, .T. ) ;
#185 = CARTESIAN_POINT ( 'NONE',  ( 125.0000000000000000, -15.87500000000000000, -15.87500000000000000 ) ) ;
#186 = EDGE_CURVE ( 'NONE', #22, #354, #174, .T. ) ;
#187 = AXIS2_PLACEMENT_3D ( 'NONE', #245, #99, #98 ) ;
#188 = AXIS2_PLACEMENT_3D ( 'NONE', #307, #31, #160 ) ;
#189 = STYLED_ITEM ( 'NONE', ( #32 ), #155 ) ;
#190 = CARTESIAN_POINT ( 'NONE',  ( 3.469446951953614189E-15, -8.445896366636842956, 5.551115123125782702E-14 ) ) ;
#191 = DIRECTION ( 'NONE',  ( 0.0000000000000000000, -0.0000000000000000000, -1.000000000000000000 ) ) ;
#192 = ORIENTED_EDGE ( 'NONE', *, *, #269, .T. ) ;
#193 = VERTEX_POINT ( 'NONE', #185 ) ;
#194 = ORIENTED_EDGE ( 'NONE', *, *, #274, .T. ) ;
#195 = VECTOR ( 'NONE', #74, 1000.000000000000000 ) ;
#196 = VECTOR ( 'NONE', #101, 1000.000000000000000 ) ;
#197 = VECTOR ( 'NONE', #356, 1000.000000000000227 ) ;
#198 = CARTESIAN_POINT ( 'NONE',  ( 23.49999999999998579, 0.0000000000000000000, 0.0000000000000000000 ) ) ;
#199 = AXIS2_PLACEMENT_3D ( 'NONE', #318, #107, #88 ) ;
#200 = MECHANICAL_DESIGN_GEOMETRIC_PRESENTATION_REPRESENTATION (  '', ( #189 ), #235 ) ;
#201 = PRODUCT_RELATED_PRODUCT_CATEGORY ( 'part', '', ( #360 ) ) ;
#202 = DIRECTION ( 'NONE',  ( -1.161518853562087414E-16, -1.000000000000000000, 8.677831656748562794E-15 ) ) ;
#203 = CARTESIAN_POINT ( 'NONE',  ( 125.0000000000000000, -25.00000000000000000, -15.87500000000000000 ) ) ;
#204 =( NAMED_UNIT ( * ) SI_UNIT ( $, .STERADIAN. ) SOLID_ANGLE_UNIT ( ) );
#205 = DIRECTION ( 'NONE',  ( 0.0000000000000000000, 0.0000000000000000000, 1.000000000000000000 ) ) ;
#206 = CARTESIAN_POINT ( 'NONE',  ( 19.67157287525381193, -3.828427124746185850, -15.87500000000000000 ) ) ;
#207 = ORIENTED_EDGE ( 'NONE', *, *, #97, .F. ) ;
#208 = ORIENTED_EDGE ( 'NONE', *, *, #366, .F. ) ;
#209 = ORIENTED_EDGE ( 'NONE', *, *, #61, .F. ) ;
#210 = ADVANCED_FACE ( 'NONE', ( #58 ), #177, .T. ) ;
#211 = DIRECTION ( 'NONE',  ( 0.7071067811865463515, 0.7071067811865487940, 0.0000000000000000000 ) ) ;
#212 = COLOUR_RGB ( '',0.9372549019607843146, 0.9607843137254902244, 1.000000000000000000 ) ;
#213 = CARTESIAN_POINT ( 'NONE',  ( 3.469446951953614189E-15, -0.2199113894877525177, -1.564750842369094785 ) ) ;
#214 = CARTESIAN_POINT ( 'NONE',  ( 16.84314575050761675, -5.000000000000000000, 0.0000000000000000000 ) ) ;
#215 = ORIENTED_EDGE ( 'NONE', *, *, #400, .T. ) ;
#216 = DIRECTION ( 'NONE',  ( 1.000000000000000000, 0.0000000000000000000, 0.0000000000000000000 ) ) ;
#217 = DIRECTION ( 'NONE',  ( -1.000000000000000000, 1.161518853562087414E-16, 0.0000000000000000000 ) ) ;
#218 = CARTESIAN_POINT ( 'NONE',  ( 18.50000000000000355, -5.000000000000000000, -15.87500000000000000 ) ) ;
#219 = DIRECTION ( 'NONE',  ( 0.0000000000000000000, -1.000000000000000000, 0.0000000000000000000 ) ) ;
#220 = EDGE_CURVE ( 'NONE', #239, #41, #384, .T. ) ;
#221 = LINE ( 'NONE', #306, #44 ) ;
#222 = ORIENTED_EDGE ( 'NONE', *, *, #269, .F. ) ;
#223 = CARTESIAN_POINT ( 'NONE',  ( 125.0000000000000000, 0.0000000000000000000, -15.87500000000000000 ) ) ;
#224 = ORIENTED_EDGE ( 'NONE', *, *, #281, .F. ) ;
#225 = SURFACE_SIDE_STYLE ('',( #157 ) ) ;
#226 = EDGE_LOOP ( 'NONE', ( #395, #288, #355, #54 ) ) ;
#227 = LINE ( 'NONE', #136, #79 ) ;
#228 = CARTESIAN_POINT ( 'NONE',  ( 19.67157287525381193, -3.828427124746186294, 0.0000000000000000000 ) ) ;
#229 = VECTOR ( 'NONE', #324, 1000.000000000000000 ) ;
#230 = LINE ( 'NONE', #265, #113 ) ;
#231 = CARTESIAN_POINT ( 'NONE',  ( 3.469446951953614189E-15, -7.499999999999902300, -2.999999999999954259 ) ) ;
#232 = DIRECTION ( 'NONE',  ( -0.0000000000000000000, -0.0000000000000000000, -1.000000000000000000 ) ) ;
#233 = DIRECTION ( 'NONE',  ( 1.000000000000000000, 0.0000000000000000000, 0.0000000000000000000 ) ) ;
#234 = ADVANCED_FACE ( 'NONE', ( #398 ), #87, .T. ) ;
#235 =( GEOMETRIC_REPRESENTATION_CONTEXT ( 3 ) GLOBAL_UNCERTAINTY_ASSIGNED_CONTEXT ( ( #14 ) ) GLOBAL_UNIT_ASSIGNED_CONTEXT ( ( #381, #149, #175 ) ) REPRESENTATION_CONTEXT ( 'NONE', 'WORKASPACE' ) );
#236 = CARTESIAN_POINT ( 'NONE',  ( 16.84314575050761675, -5.000000000000000000, -15.87500000000000000 ) ) ;
#237 = ORIENTED_EDGE ( 'NONE', *, *, #256, .T. ) ;
#238 = ORIENTED_EDGE ( 'NONE', *, *, #163, .T. ) ;
#239 = VERTEX_POINT ( 'NONE', #317 ) ;
#240 = DIRECTION ( 'NONE',  ( 1.007946507735138592E-30, 8.677831656748562794E-15, 1.000000000000000000 ) ) ;
#241 = CARTESIAN_POINT ( 'NONE',  ( 3.000000000000002665, -0.2199113894877525177, -1.564750842369094785 ) ) ;
#242 = DIRECTION ( 'NONE',  ( 9.514605433755934095E-17, 0.8191520442889946851, 0.5735764363510417185 ) ) ;
#243 = EDGE_CURVE ( 'NONE', #143, #167, #292, .T. ) ;
#244 = PLANE ( 'NONE',  #340 ) ;
#245 = CARTESIAN_POINT ( 'NONE',  ( 3.000000000000002665, -7.499999999999902300, -2.999999999999954259 ) ) ;
#246 = AXIS2_PLACEMENT_3D ( 'NONE', #49, #240, #202 ) ;
#247 = MECHANICAL_DESIGN_GEOMETRIC_PRESENTATION_REPRESENTATION (  '', ( #139 ), #92 ) ;
#248 = ORIENTED_EDGE ( 'NONE', *, *, #164, .F. ) ;
#249 = ADVANCED_FACE ( 'NONE', ( #184 ), #63, .F. ) ;
#250 = ORIENTED_EDGE ( 'NONE', *, *, #48, .T. ) ;
#251 = LINE ( 'NONE', #334, #327 ) ;
#252 = VECTOR ( 'NONE', #242, 1000.000000000000114 ) ;
#253 = LINE ( 'NONE', #129, #197 ) ;
#254 = EDGE_LOOP ( 'NONE', ( #368, #67, #276, #357 ) ) ;
#255 = DIRECTION ( 'NONE',  ( 1.000000000000000000, 0.0000000000000000000, 0.0000000000000000000 ) ) ;
#256 = EDGE_CURVE ( 'NONE', #380, #6, #172, .T. ) ;
#257 = CARTESIAN_POINT ( 'NONE',  ( 3.469446951953614189E-15, 1.613292832658430598E-13, -1.387778780781445676E-14 ) ) ;
#258 = EDGE_CURVE ( 'NONE', #277, #75, #134, .T. ) ;
#259 = ORIENTED_EDGE ( 'NONE', *, *, #258, .F. ) ;
#260 = ORIENTED_EDGE ( 'NONE', *, *, #308, .T. ) ;
#261 = ORIENTED_EDGE ( 'NONE', *, *, #114, .F. ) ;
#262 = LINE ( 'NONE', #70, #278 ) ;
#263 = LINE ( 'NONE', #24, #156 ) ;
#264 = APPLICATION_CONTEXT ( 'automotive_design' ) ;
#265 = CARTESIAN_POINT ( 'NONE',  ( 3.000000000000002665, -8.445896366636842956, 5.551115123125782702E-14 ) ) ;
#266 = CARTESIAN_POINT ( 'NONE',  ( 125.0000000000000000, -15.87500000000000000, 0.0000000000000000000 ) ) ;
#267 = FACE_OUTER_BOUND ( 'NONE', #152, .T. ) ;
#268 = PRODUCT_DEFINITION_SHAPE ( 'NONE', 'NONE',  #272 ) ;
#269 = EDGE_CURVE ( 'NONE', #133, #22, #69, .T. ) ;
#270 = SURFACE_STYLE_FILL_AREA ( #397 ) ;
#271 = VECTOR ( 'NONE', #319, 1000.000000000000000 ) ;
#272 = PRODUCT_DEFINITION ( 'UNKNOWN', '', #73, #37 ) ;
#273 = CARTESIAN_POINT ( 'NONE',  ( 2.914230647672876409E-15, -5.000000000000000888, -4.911804920760110882 ) ) ;
#274 = EDGE_CURVE ( 'NONE', #41, #75, #346, .T. ) ;
#275 = VERTEX_POINT ( 'NONE', #213 ) ;
#276 = ORIENTED_EDGE ( 'NONE', *, *, #375, .T. ) ;
#277 = VERTEX_POINT ( 'NONE', #128 ) ;
#278 = VECTOR ( 'NONE', #205, 1000.000000000000000 ) ;
#279 = DIRECTION ( 'NONE',  ( -0.0000000000000000000, -0.0000000000000000000, -1.000000000000000000 ) ) ;
#280 = LINE ( 'NONE', #34, #303 ) ;
#281 = EDGE_CURVE ( 'NONE', #193, #354, #147, .T. ) ;
#282 = LINE ( 'NONE', #284, #399 ) ;
#283 = ORIENTED_EDGE ( 'NONE', *, *, #17, .F. ) ;
#284 = CARTESIAN_POINT ( 'NONE',  ( 3.469446951953614189E-15, -0.2199113894877525177, -1.564750842369094785 ) ) ;
#285 = CARTESIAN_POINT ( 'NONE',  ( 3.000000000000002665, -0.2199113894877525177, -1.564750842369094785 ) ) ;
#286 = CARTESIAN_POINT ( 'NONE',  ( 1.117490204221960002E-15, -15.87500000000000000, -15.87500000000000000 ) ) ;
#287 =( NAMED_UNIT ( * ) PLANE_ANGLE_UNIT ( ) SI_UNIT ( $, .RADIAN. ) );
#288 = ORIENTED_EDGE ( 'NONE', *, *, #348, .F. ) ;
#289 = VERTEX_POINT ( 'NONE', #228 ) ;
#290 = CARTESIAN_POINT ( 'NONE',  ( 23.49999999999998579, 0.0000000000000000000, -15.87500000000000000 ) ) ;
#291 = AXIS2_PLACEMENT_3D ( 'NONE', #126, #367, #3 ) ;
#292 = LINE ( 'NONE', #45, #252 ) ;
#293 = FILL_AREA_STYLE ('',( #36 ) ) ;
#294 = PLANE ( 'NONE',  #125 ) ;
#295 = DIRECTION ( 'NONE',  ( 0.0000000000000000000, 0.0000000000000000000, 1.000000000000000000 ) ) ;
#296 = CARTESIAN_POINT ( 'NONE',  ( 125.0000000000000000, -15.87500000000000000, -15.87500000000000000 ) ) ;
#297 = DIRECTION ( 'NONE',  ( 9.514605433755934095E-17, 0.8191520442889946851, 0.5735764363510417185 ) ) ;
#298 = ORIENTED_EDGE ( 'NONE', *, *, #332, .F. ) ;
#299 = DIRECTION ( 'NONE',  ( 1.000000000000000000, 0.0000000000000000000, 0.0000000000000000000 ) ) ;
#300 = EDGE_LOOP ( 'NONE', ( #311, #7, #29, #394 ) ) ;
#301 = ORIENTED_EDGE ( 'NONE', *, *, #400, .F. ) ;
#302 = LINE ( 'NONE', #2, #4 ) ;
#303 = VECTOR ( 'NONE', #219, 1000.000000000000000 ) ;
#304 = LINE ( 'NONE', #401, #35 ) ;
#305 = AXIS2_PLACEMENT_3D ( 'NONE', #122, #117, #353 ) ;
#306 = CARTESIAN_POINT ( 'NONE',  ( 16.84314575050761675, -5.000000000000000000, 0.0000000000000000000 ) ) ;
#307 = CARTESIAN_POINT ( 'NONE',  ( 23.49999999999998579, 0.0000000000000000000, -15.87500000000000000 ) ) ;
#308 = EDGE_CURVE ( 'NONE', #239, #277, #263, .T. ) ;
#309 = DIRECTION ( 'NONE',  ( -1.161518853562087414E-16, -1.000000000000000000, 8.677831656748562794E-15 ) ) ;
#310 = ORIENTED_EDGE ( 'NONE', *, *, #243, .F. ) ;
#311 = ORIENTED_EDGE ( 'NONE', *, *, #142, .T. ) ;
#312 = PRODUCT_CONTEXT ( 'NONE', #361, 'mechanical' ) ;
#313 = ORIENTED_EDGE ( 'NONE', *, *, #393, .T. ) ;
#314 = VECTOR ( 'NONE', #279, 1000.000000000000000 ) ;
#315 = AXIS2_PLACEMENT_3D ( 'NONE', #218, #27, #347 ) ;
#316 =( LENGTH_UNIT ( ) NAMED_UNIT ( * ) SI_UNIT ( .MILLI., .METRE. ) );
#317 = CARTESIAN_POINT ( 'NONE',  ( 23.49999999999998579, 0.0000000000000000000, -15.87500000000000000 ) ) ;
#318 = CARTESIAN_POINT ( 'NONE',  ( 16.84314575050761675, -1.000000000000000000, 0.0000000000000000000 ) ) ;
#319 = DIRECTION ( 'NONE',  ( -1.000000000000000000, 1.161518853562087414E-16, 0.0000000000000000000 ) ) ;
#320 = DIRECTION ( 'NONE',  ( 0.0000000000000000000, -1.000000000000000000, 0.0000000000000000000 ) ) ;
#321 = DIRECTION ( 'NONE',  ( 1.000000000000000000, 0.0000000000000000000, 0.0000000000000000000 ) ) ;
#322 = ORIENTED_EDGE ( 'NONE', *, *, #159, .T. ) ;
#323 = ORIENTED_EDGE ( 'NONE', *, *, #258, .T. ) ;
#324 = DIRECTION ( 'NONE',  ( -1.000000000000000000, 1.161518853562087414E-16, 0.0000000000000000000 ) ) ;
#325 = DIRECTION ( 'NONE',  ( 6.662198447806896522E-17, 0.5735764363510418296, -0.8191520442889947962 ) ) ;
#326 = ORIENTED_EDGE ( 'NONE', *, *, #332, .T. ) ;
#327 = VECTOR ( 'NONE', #211, 999.9999999999998863 ) ;
#328 = LINE ( 'NONE', #376, #229 ) ;
#329 = CYLINDRICAL_SURFACE ( 'NONE', #291, 4.000000000000000000 ) ;
#330 = ADVANCED_BREP_SHAPE_REPRESENTATION ( 'CUT-153-02-26', ( #155, #38 ), #183 ) ;
#331 = ADVANCED_FACE ( 'NONE', ( #351 ), #171, .F. ) ;
#332 = EDGE_CURVE ( 'NONE', #6, #23, #221, .T. ) ;
#333 = DIRECTION ( 'NONE',  ( 1.000000000000000000, -1.161518853562087414E-16, 0.0000000000000000000 ) ) ;
#334 = CARTESIAN_POINT ( 'NONE',  ( 18.50000000000000355, -5.000000000000000000, 0.0000000000000000000 ) ) ;
#335 = ORIENTED_EDGE ( 'NONE', *, *, #389, .F. ) ;
#336 = EDGE_LOOP ( 'NONE', ( #322, #166, #30, #222 ) ) ;
#337 = VERTEX_POINT ( 'NONE', #137 ) ;
#338 = EDGE_LOOP ( 'NONE', ( #207, #42, #106, #298, #77, #95 ) ) ;
#339 = ORIENTED_EDGE ( 'NONE', *, *, #274, .F. ) ;
#340 = AXIS2_PLACEMENT_3D ( 'NONE', #241, #325, #297 ) ;
#341 =( LENGTH_UNIT ( ) NAMED_UNIT ( * ) SI_UNIT ( .MILLI., .METRE. ) );
#342 = DIRECTION ( 'NONE',  ( 0.0000000000000000000, 0.0000000000000000000, -1.000000000000000000 ) ) ;
#343 = EDGE_CURVE ( 'NONE', #104, #120, #304, .T. ) ;
#344 = CARTESIAN_POINT ( 'NONE',  ( 2.449293598294706513E-15, -5.000000000000000000, -15.87500000000000000 ) ) ;
#345 = EDGE_LOOP ( 'NONE', ( #261, #208, #94, #179, #131, #209, #339, #76, #283 ) ) ;
#346 = LINE ( 'NONE', #390, #371 ) ;
#347 = DIRECTION ( 'NONE',  ( 0.7071067811865463515, 0.7071067811865487940, 0.0000000000000000000 ) ) ;
#348 = EDGE_CURVE ( 'NONE', #182, #90, #377, .T. ) ;
#349 = DIRECTION ( 'NONE',  ( -1.161518853562087414E-16, -1.000000000000000000, 8.677831656748562794E-15 ) ) ;
#350 = DIRECTION ( 'NONE',  ( 1.000000000000000000, 0.0000000000000000000, 0.0000000000000000000 ) ) ;
#351 = FACE_OUTER_BOUND ( 'NONE', #378, .T. ) ;
#352 = CARTESIAN_POINT ( 'NONE',  ( 1.117490204221960002E-15, -15.87500000000000000, -15.87500000000000000 ) ) ;
#353 = DIRECTION ( 'NONE',  ( 1.000000000000000000, 0.0000000000000000000, 0.0000000000000000000 ) ) ;
#354 = VERTEX_POINT ( 'NONE', #266 ) ;
#355 = ORIENTED_EDGE ( 'NONE', *, *, #375, .F. ) ;
#356 = DIRECTION ( 'NONE',  ( 1.616521806738838559E-17, 0.1391731009601240021, 0.9902680687415620353 ) ) ;
#357 = ORIENTED_EDGE ( 'NONE', *, *, #366, .T. ) ;
#358 = VECTOR ( 'NONE', #25, 1000.000000000000000 ) ;
#359 = VECTOR ( 'NONE', #233, 1000.000000000000000 ) ;
#360 = PRODUCT ( 'CUT-153-02-26', 'CUT-153-02-26', '', ( #312 ) ) ;
#361 = APPLICATION_CONTEXT ( 'automotive_design' ) ;
#362 = PRESENTATION_LAYER_ASSIGNMENT (  '', '', ( #189 ) ) ;
#363 = DIRECTION ( 'NONE',  ( 1.616521806738838867E-17, 0.1391731009601240021, 0.9902680687415620353 ) ) ;
#364 = CARTESIAN_POINT ( 'NONE',  ( 1.117490204221960002E-15, -15.87500000000000000, -15.87500000000000000 ) ) ;
#365 = ADVANCED_FACE ( 'NONE', ( #11 ), #329, .F. ) ;
#366 = EDGE_CURVE ( 'NONE', #182, #337, #230, .T. ) ;
#367 = DIRECTION ( 'NONE',  ( 0.0000000000000000000, 0.0000000000000000000, -1.000000000000000000 ) ) ;
#368 = ORIENTED_EDGE ( 'NONE', *, *, #127, .F. ) ;
#369 = DIRECTION ( 'NONE',  ( 1.000000000000000000, 0.0000000000000000000, 0.0000000000000000000 ) ) ;
#370 = VECTOR ( 'NONE', #350, 1000.000000000000000 ) ;
#371 = VECTOR ( 'NONE', #255, 1000.000000000000000 ) ;
#372 = CARTESIAN_POINT ( 'NONE',  ( 3.000000000000002665, 1.613292832658430598E-13, -1.387778780781445676E-14 ) ) ;
#373 = CARTESIAN_POINT ( 'NONE',  ( 2.999999999999999556, -5.000000000000021316, -4.911804920760110882 ) ) ;
#374 = CARTESIAN_POINT ( 'NONE',  ( 0.0000000000000000000, 0.0000000000000000000, 0.0000000000000000000 ) ) ;
#375 = EDGE_CURVE ( 'NONE', #167, #182, #253, .T. ) ;
#376 = CARTESIAN_POINT ( 'NONE',  ( 3.000000000000002665, -0.2199113894877525177, -1.564750842369094785 ) ) ;
#377 = LINE ( 'NONE', #1, #271 ) ;
#378 = EDGE_LOOP ( 'NONE', ( #56, #238, #260, #89, #173, #250, #55 ) ) ;
#379 = ORIENTED_EDGE ( 'NONE', *, *, #17, .T. ) ;
#380 = VERTEX_POINT ( 'NONE', #150 ) ;
#381 =( LENGTH_UNIT ( ) NAMED_UNIT ( * ) SI_UNIT ( .MILLI., .METRE. ) );
#382 = ADVANCED_FACE ( 'NONE', ( #267 ), #59, .T. ) ;
#383 = FACE_OUTER_BOUND ( 'NONE', #65, .T. ) ;
#384 = LINE ( 'NONE', #290, #196 ) ;
#385 = AXIS2_PLACEMENT_3D ( 'NONE', #19, #140, #363 ) ;
#386 = LINE ( 'NONE', #190, #111 ) ;
#387 = ADVANCED_FACE ( 'NONE', ( #81 ), #52, .T. ) ;
#388 = PLANE ( 'NONE',  #188 ) ;
#389 = EDGE_CURVE ( 'NONE', #90, #22, #386, .T. ) ;
#390 = CARTESIAN_POINT ( 'NONE',  ( 23.49999999999998579, 0.0000000000000000000, 0.0000000000000000000 ) ) ;
#391 = AXIS2_PLACEMENT_3D ( 'NONE', #110, #83, #10 ) ;
#392 = SURFACE_SIDE_STYLE ('',( #270 ) ) ;
#393 = EDGE_CURVE ( 'NONE', #289, #380, #135, .T. ) ;
#394 = ORIENTED_EDGE ( 'NONE', *, *, #393, .F. ) ;
#395 = ORIENTED_EDGE ( 'NONE', *, *, #124, .T. ) ;
#396 = ORIENTED_EDGE ( 'NONE', *, *, #178, .F. ) ;
#397 = FILL_AREA_STYLE ('',( #154 ) ) ;
#398 = FACE_OUTER_BOUND ( 'NONE', #254, .T. ) ;
#399 = VECTOR ( 'NONE', #15, 1000.000000000000114 ) ;
#400 = EDGE_CURVE ( 'NONE', #120, #275, #282, .T. ) ;
#401 = CARTESIAN_POINT ( 'NONE',  ( 2.449293598294706513E-15, -5.000000000000000000, -15.87500000000000000 ) ) ;
#402 = UNCERTAINTY_MEASURE_WITH_UNIT (LENGTH_MEASURE( 1.000000000000000082E-05 ), #316, 'distance_accuracy_value', 'NONE');
ENDSEC;
END-ISO-10303-21;
